Guitar Tabs, Chords and Lyrics
Major upgrade!! After one year development the new version of Chordie is now online! Please give feedback.


nostalgia  Every Little Thing



[F#m]Em7 [-]- [244222]022030
Asus4 - x02230
A - x02220
E - 022100
C#m - x46654
Am - x02210
Em - 022000
C - x32010
G/B - x20033
B - x24442
Dsus4 - xx0233
 
 Intro: D--A/C#--Bm---G--Asus4-A
 

Violin:
 
 e|--------------------15-14------------------15-14------------------15-14--------------|
 B|------15~-----15-17-------17-15~-----15-17-------17-15~-----15-17-------17-15~-14~---|
 G|-----------14---------------------14---------------------14--------------------------|
 D|-------------------------------------------------------------------------------------|
 A|-------------------------------------------------------------------------------------|
 E|-------------------------------------------------------------------------------------|
 

Verse 1:
a[D]oku tsumetai kaze ga fuku a[A/C#]rayuru yo no hakanasa wo
ta[Bm]takitsukeru no you ni mune [F#m]wo utsu son[G]na samishisa [A]sae mo
to[F#m]kihanatteku[Bm]reta mono ha a[Em7]nata no egao [Asus4]deshita[A]
nan[D]de itsumo muki ni natte ki[A/C#]zutsuketeshimau darou
ha[Bm]kidasu to douji ni koukai shi[F#m]ta tte i[G]ma ni mo nakida[A]shisou na
yu[F#m]ganda sono e[Bm]gao ga kieru [Em7]wake jyanai no [Asus4]ni ne [A]
Refrain 1:
[F#m]itsu[E]ka chiisa[D]na kono te [C#m]wo
[F#m]gyut[E]to nigiri[D]shimeteita
ano [C#m]tsuyosa[F#m] nokot[D]teru it[Esus4]ai hodo [E]ni
Chorus 1:
a[Am]no doa wo [D]aketa so[Bm]no shunkan[Em] kara
a[Am]tatakai [D]hikari afu[Bm]re ko[Em]morebi no
[C]you ni ya[G/B]sashiku tsu[B]tsumarete[Em]ta
I [C]felt there is your [D]love so always in my [G]life
(Repeat Intro)
Verse 2:
nan[D]demo hanaseru kurai no ko[A/C#]kochiyosa ga koko ni atte
t[Bm]ouzen no you ni amaete ki[F#m]tayou ne
chou[G]to terekusa[A]kute a[F#m]mari kuchi ni de[Bm]kizu ni ita
"[Em7]itsumo a[Dsus4]rigatou"[D]
Refrain 2:
[F#m]koko [E]ni anata [D]ga nokoshi[C#m]ta
[F#m]kise[E]ki hokore[D]ru you ni to
kiga[C#m]rezu ni[F#m] mas[D]sugu ni iki[Esus4]tekuyo ku[E]you
Chorus 2:
ha[Am]na no you ni [D]urei ma[Bm]bayui ho[Em]hoemi
it[Am]sudemo so[D]ba ni at[Bm]ta ha[Em]naretei[C]ta tte
na[G/B]ni yori tsu[B]yoi kizu[Em]na ka[C]rada ni naga[D]reteiru
Bridge:
[Am] anata no e[D]gao ga[Bm] anata no so[Em]no te ga
[Am] anata no tsu[D]yosa ga zut[Bm]to ma[Em]motteki[C]ta mono
ho[G/B]ra ima ka[B]gayaku ka[Em]ra I [C]felt there is your [D]love,
so always in my [G]life
 
 Interlude: Am-D-Bm-Em-Am-D-Bm-Em-C-G/B-B-Em-C--D--
 

There is a mandolin riff here and another guitar. I can't figure out to tab them, if you
just email me
Tat's why I decided to get only the chorus chords. Mandolin Riff looks difficult for me
tab.
(Repeat Chorus 2 and Bridge)
 
 Outro: G--G/B--Em---C--Dsus4-D--G(let ring)
 

Violin:
 
 e|--------------------20-19------------------20-19------------------20-19--------------|
 B|------20~-----20-22-------22-20~-----20-22-------22-20~-----20-22-------22-20~-19~---|
 G|-----------19---------------------19---------------------19--------------------------|
 D|-------------------------------------------------------------------------------------|
 A|-------------------------------------------------------------------------------------|
 E|-------------------------------------------------------------------------------------|
 

http://www.avexnet.or.jp/elt/

Important: The song above is NOT stored on the Chordie server. The original song is hosted at chordiearchive.chordie.com. Chordie works as a search engine and provides on-the-fly formatting. Chordie does not index songs against artists'/composers' will. To remove this song please click here.

Text color:
Chord color:
Chord grids: 
Font size:    
Page size: 

A A/C# Am Asus4 B Bm C C#m D Dsus4 E Em Em7 Esus4 F#m G G/B
Rate #4 of 4 versions

Jango Player

Login - add to songbook

SHARE PAGE  



You need to log in to post comments