Guitar Tabs, Chords and Lyrics
Major upgrade!! After one year development the new version of Chordie is now online! Please give feedback.


nostalgia  Every Little Thing


[Dm] [Am] [Dm]  
 
 |---------------|--------------|------------------------|
 |----6-5--------|--------------|------------------------|
 |--------7-5----|-7^9----------|-------7-5--5^7^5-------|
 |-7-------------|--------------|---7-8------------8-7-5-|
 |---------------|--------------|------------------------|
 |---------------|--------------|------------------------|
 

[Am] [Dm] [Am] [Dm]  
 
 |---------|-------8-1O-|---12-13-|-------8^10^8---------|
 |---------|--1O-11-----|---------|-1O-11--------11-1O-8-|
 |---------|------------|---------|----------------------|
 |-7-------|------------|---------|----------------------|
 |---------|------------|---------|----------------------|
 |---------|------------|---------|----------------------|
 

[Am]  
 
 |----------|
 |----------|
 |-10-9-----|
 |----------|
 |----------|
 |----------|
 

Es la nos[Dm]talgia [Am]
de fin de siglo [Dm] [Am]
y se vue[Dm]lven a oir las [Am]rolas
de los [Dm]Beatles [Am]
de Elv[Bb]is, de Janis, de H[F]endrix
de Morr[Gm]ison y de [A]Lennon
CORO:
Y es que es la nostal[Dm]gia [Bb]
de fin de sig[C]lo
y todo el m[Dm]undo quisiera el t[Bb]iempo poder regresa[C]r
y revi[Dm]vir los recuerdos[Bb] y los buenos ti[C]empos
porque rec[Dm]ordar es vivir[Bb]
y todos qu[A]eremos vivir mas
 
 |-----------------------------------------------------|
 |-------------------5-6-5-----------------------------|
 |---------------6-7-----------------------------------|
 |--7-8-7----7-8---------------------------------------|
 |-----------------------------------------------------|
 |-----------------------------------------------------|
 

Es la nos[Dm]talgia [Am]
de fin de siglo[Dm] [Am]
se vuelve a p[Dm]oner de moda la ideolog[Am]ia
del [Dm]Che Guevara [Am]
y todos qu[Bb]ieren ser rebeldes y cont[F]estatarios
anarq[Gm]uistas y revolucion[A]arios
Y es que es la nostal[Dm]gia [Bb]
de fin de sig[C]lo
y todo el m[Dm]undo quisiera el t[Bb]iempo poder regresa[C]r
y revi[Dm]vir los recuerdos[Bb] y los buenos ti[C]empos
porque rec[Dm]ordar es vivir[Bb]
y todos qu[A]eremos vivir mas
 
 |-------9-10-12-10-9-------------------------------|
 |-10-11--------------11-10-8-10-8------------------|
 |---------------------------------10-9-------------|
 |---------------------------------------12-11------|
 |--------------------------------------------------|
 |--------------------------------------------------|
 

Es la nos[Dm]talgia [Am]
de fin de siglo[Dm] [Am]
y los hi[Dm]jos se rebelan contr[Am]a los padres
como los [Dm]padres lo hicieron con l[Am]os abuelos
con la [Bb]misma actitud, las mismas f[F]achas
las mismas c[Gm]ausas y hasta la misma [A]música
Reescribida por mi Narcizo

Important: The song above is NOT stored on the Chordie server. The original song is hosted at chordiearchive.chordie.com. Chordie works as a search engine and provides on-the-fly formatting. Chordie does not index songs against artists'/composers' will. To remove this song please click here.

Text color:
Chord color:
Chord grids: 
Font size:    
Page size: 

A Am Bb C Dm F Gm
Rate #3 of 4 versions

Jango Player

Login - add to songbook

SHARE PAGE  



You need to log in to post comments