Guitar Tabs, Chords and Lyrics
Major upgrade!! After one year development the new version of Chordie is now online! Please give feedback.


Overdue  The Get Up Kids



 
 -----------------------------
 

 
 ----------------------------
 

[Bm] [D] [G] [F#]  
 
 E|-2-----2-----3-----2-------|
 B|-3-----3-----3-----2-------|
 G|-4-----2-----4-----3-------|
 D|-4-----0-----5-----4-------|
 A|-2-----x-----5-----4-------|
 E|-------x-----3-----2-------|
 

**For G, Personally I just use 320033/320002. The rhythm is very easy to work out.
Solo
 
 E|------------------------------------------------------------------------|
 B|------------------------------------------------------------------------|
 G|--4-2-2-0---------------------------------------------------------------|
 D|-------------4-2--2/4--2-0-2-4---------------2--------------------------|
 A|--------------------------------------2-2-4-5-----5-4--5/4--2-0-2-------|
 E|------------------------------------------------------------------------|
 

Verse 1
 
 ------------
 

[Bm]You're a few years [D]overd[G]ue
[Bm]I spent them wa[F#]iting here for y[G]ou
Now your [Bm]charity[D]'s refuse[G]d
[Bm]I can name a p[F#]enance for a[G]buse
[Bm] [F#] [G]  
Verse 2
 
 ------------
 

[Bm]Twenty four years [D]overd[G]ue
[Bm]What kind of ro[F#]le model are you[G]?
Very l[Bm]east learn[D] not to [G]do
[Bm]I think I [F#]might be over y[G]ou
Chorus
 
 --------------
 

[D]Do hope I wo[Bm]n't
Learn to mak[G]e, the same mistake[F#]s that you would
[D]Make me awa[Bm]re
My only fea[G]r, my only hop[F#]e is letting go
[Bm] [F#] [G]  
Verse 3
 
 ------------
 

[Bm]Went on a li[D]mb for y[G]ou,
[Bm]Capsized when [F#]I turned twenty t[G]wo.
Did it burn[Bm] as ba[D]d for yo[G]u?
[Bm]No bottle se[F#]rves to soothe my woun[G]d
Chorus
 
 --------------
 

[D]Do hope I wo[Bm]n't
Learn to mak[G]e, the same mistakes[F#] that you would
[D]Make me aw[Bm]are
My only fea[G]r, my only hop[F#]e is letting [F#]go [D]
[G]My only ho[F#]pe is letting g[F#]o [D] [G] [F#]
[Bm] [F#] [G]  
[B]You're a few years[D] overdu[G]e
[B]I spent them [F#]waiting here for [G]you

Important: The song above is NOT stored on the Chordie server. The original song is hosted at chordiearchive.chordie.com. Chordie works as a search engine and provides on-the-fly formatting. Chordie does not index songs against artists'/composers' will. To remove this song please click here.

Text color:
Chord color:
Chord grids: 
Font size:    
Page size: 

B Bm D F# G
Rate #6 of 10 versions

Jango Player

Login - add to songbook

SHARE PAGE  




You need to log in to post comments