Guitar Tabs, Chords and Lyrics
Major upgrade!! After one year development the new version of Chordie is now online! Please give feedback.


Dark Horse  George Harrison



[A7sus2] [A7] [A7sus2] [A7] [E7] [E7/9] [E7]  
 
 E |--------------------------------
 B |--0--h2---0--h2----0---h3---0---
 G |--0---0---0---0----1----1---1---
 D |--2---2---2---2----0----0---0---
 A |--0---0---0---0----2----2---2---
 E |-------------------0----0---0---

[A7]You thought that you knew where I was an[E7]d w[E7/9]hen
[A7]But it looks like they've been foolin' y[E7]ou [E7/9]again,
[B7]You thought that you'd got me all steake[E7]d o[E7/9]ut
[B7]But baby looks like I've been breaking o[E7]ut[E7/9]
Fill In
[E7/9]  
 
 E |---------------------------------
 B |---------------------------------
 G |--1---2---4----------------------
 D |--0---0---0---------------------- Hit The Guitar Softly
 A |--2---2---2----------------------
 E |---------------------------------

[F]I'm a dark h[C]ors[C/9]e[C] [C/9]
[C]Running on a[G] dark race co[D]ur[Dsus4]se[Dsus2] [D]
[F]I'm a blue m[C]oon[C/9] [C] [C/9]
[C]Since I step[G]ped from out [D]of[Dsus4] the w[Dsus2]omb[D]
[F]I've been a [C]coo[C/9]l je[C]rk[C/9]
[C]Looking for [G]the source[D] [Dsus4] [Dsus2] [D]
[F]I'm a dark h[C]ors[C/9]e.[C] [C/9]
(Hit again the guitar softly)
Intro x2
You thought you had got me in your grip
Baby looks like you was not so smart
And I became too slippery for you
But let me say that was nothing new.
Chorus
Intro x2
I thought that you knew it all along
Until you started getting me not right
Seems as if you heared a little late
But I warned you when
We both were at the starting gate
Chorus
CHORDS:
[C/9] [EADGBE]x32013
hope you like it----
Martin Testa
any comments mtesta43@hotmail.com

Important: The song above is NOT stored on the Chordie server. The original song is hosted at chordiearchive.chordie.com. Chordie works as a search engine and provides on-the-fly formatting. Chordie does not index songs against artists'/composers' will. To remove this song please click here.

Text color:
Chord color:
Chord grids: 
Font size:    
Page size: 

A7 A7sus2 B7 C D Dsus2 Dsus4 E7 E7/9 F G
Rate #1 of 7 versions

Jango Player

Login - add to songbook

SHARE PAGE  




You need to log in to post comments