Guitar Tabs, Chords and Lyrics
Major upgrade!! After one year development the new version of Chordie is now online! Please give feedback.


Angel Eyes  John Hiatt



 
 -----------------------

[D] Girl, you're [D/F#]looking [G]fine tonight[A]
[D] And every [D/F#]fella's got you [G]in his sights[A]
[G] What you're [D]doing with a [Em]clown like me[D/F#]
[G] Is surely [D/F#]one of life's little[E] mysteries
So [D]tonight I'll [D/F#]ask [G] the stars a[A]bove
[D] How did [D/F#]I ever [G]win your [A]love?
[G] What did I [D/F#]do, [F#(/A#] what did I [Bm]say[A]
[G] To turn [D]your angel [A]eyes my [D]way?
<Riff>
And I'm the guy who never learned to dance
I never even got one second glance
Across the crowded room, that was close enough
I could look, but I could never touch
So tonight I'll ask...
Don't anybody [G/D]wake [D]me if [Em]this is a [Bm]dream
'Cause she is the [G/D]best [D]thing that's ever [Bm]happened to me
All you [G/D]fell[D]as you can but [Em]look all you [Bm]like
But this [Em]girl you see, she's [D/F#]leaving[G] with me to[A]night
<Riff> x2
And there's just one more thing I need to know
If this is love then why does it scare me so
Must be something only you can see
But girl, I feel it when you look at me
So tonight I'll ask...
What did I do, what did I say
To turn your angel eyes my way?
<Riff>
 
 -----------

Chords used: D 000232 or 004232, D/F# 40023x, G 550033, A x02220,
Em 222000, E 222100, F# 4x4322, Bm x24432, G/D 050433.
Riff:
] ] ] ] ] ] ] ]
 
 |---------10------9-------7-------|-----------0-----------------0---|
 |-----------10------10----------8-|---------10------5---------3-----|
 |-------11----11------9\7---------|-------------11----7-----0-------|
 |--------------(0)----------------|-------12------12----7\5---------|
 |---------------------------------|---------------------------------|
 |-0-------------------------------|-0-------------------------------|

Fill:
 
 ----------|----
 ----------|----
 ----------|----
 --------0-|----
 --0-2-0---|----
 ----------|-0--

.. fine tonight
Notation used:
+ = Beat marker
/ = Slide

Important: The song above is NOT stored on the Chordie server. The original song is hosted at chordiearchive.chordie.com. Chordie works as a search engine and provides on-the-fly formatting. Chordie does not index songs against artists'/composers' will. To remove this song please click here.

Text color:
Chord color:
Chord grids: 
Font size:    
Page size: 

A Bm D D/F# E Em G G/D
Rate #1 of 1 versions

Jango Player

Login - add to songbook

SHARE PAGE  



You need to log in to post comments