Guitar Tabs, Chords and Lyrics
Login is temporarily disabled for some users. Do not panic. Will be back in an hour or two. DO NOT REREGISTER!!


Frank  kent



 
 e-|--------------------------------|--------------------------------|
 

 
 B-|--------------------------------|--------------------------------|
 

 
 G-|-------6b7r6----------6b7r6-----|------4b5r4-----------4b5r4-----|
 

 
 D-|-----7--------7-----7---------7-|----7---------7-----7---------7-|
 

 
 A-|---7--------------7-------------|--7---------------7-------------|
 

 
 E-|-5--------------5---------------|4---------------4---------------|
 

 
 e-|-------------------------|-------3-----|--------0----|
 

 
 B-|---3-----3-----0-----0---|-------3-----|--------0----|
 

 
 G-|-----2-----2-----2-----2-|-0-----0-----|-1------1----|
 

 
 D-|-0-----------------------|-0-----------|-2-----------|
 

 
 A-|-------4-----2-----0-----|-2-----------|-2-----------|
 

 
 E-|-------------------------|-3-----------|-0-----------|
 

Han f[A]ångade sparken med huvudet
han hade t[E/G#]änkt alla tankar ändå
Han st[D]od inte [D/C#]upp när han f[Bm7]ick den [Bm7/A]
för f[G]ull för att ens kunna g[E]å
L[A]ångsamt glömmer man bort allt
också p[E/G#]ojkar i manchestertyg
men jag m[D]inns våra sk[D/C#]rikiga st[Bm7]olar i k[Bm7/A]öket
och v[G]irveln på min kula av porsl[E]in
Min [F#m]vän hade kritvita [F#m/F]tänder
Hans k[A/E]läder luktade[B7sus2] rök [Bsus2]
så l[D]evande att det känns
som o[C#m]m det jag som är död
En bl[A]ank [E/G#]dank
[F#m]låg så tungt[Bsus2] i min h[A]and
[E/G#]mer värd än k[D]ulor av glas
En d[A]ank F[E/G#]rank
Jag k[F#m]ommer aldrig[Bsus2] närmare [A]än så
En b[E/G#]lank förmidd[D]ag i h[G]anden på Fr[A]ank [E]
Han f[A]ångade sparken med huvudet
Som att [E/G#]nicka en fotboll i mål
Som att k[D]asta en [D/C#]sten h[Bm7]ögt över t[Bm7/A]aken
och kl[G]ättra dit ingen kan n[E]å
L[A]ångsamt glömmer man bort allt
också t[E/G#]räskor och gulblend i smyg
men jag m[D]inns s[D/C#]aker han [Bm7]sa som g[Bm7/A]jorde mig st[G]örre
äldre, inte så bl[E]yg
På hans [F#m]jacka satt fyra m[F#m/F]ärken
H[A/E]jältar i glittrand[B7sus2]e tyg [Bsus2]
Sl[D]ade, Kiss, Bowie & Sweet, [C#m]året när Pinups var ny
En bl[A]ank [E/G#]dank
[F#m]låg så tungt[Bsus2] i min h[A]and
[E/G#]mer värd än k[D]ulor av glas
En d[A]ank F[E/G#]rank
Jag k[F#m]ommer aldrig[Bsus2] närmare [A]än så
En b[E/G#]lank förmidd[D]ag i h[G]anden på Fr[A]ank [E]
Nu är jag st[A]örre, [D]
nu är jag [F#m]äldre [E]
äldre än d[A]u [D]
Nu är jag s[F#m]törre [E]
större än du...
|D |C#m |C |Bm |
|Bb |A E |
En bl[A]ank [E/G#]dank
[F#m]låg så tungt[Bsus2] i min h[A]and
[E/G#]mer värd än k[D]ulor av glas
En d[A]ank F[E/G#]rank
Jag k[F#m]ommer aldrig [Bsus2]närmare [A]än så
En b[E/G#]lank förmidd[D]ag i h[G]anden på Fr[A]ank
Kommentar: B7sus2 = x24222, Bsus2 = x24422

Important: The song above is NOT stored on the Chordie server. The original song is hosted at chordiearchive.chordie.com. Chordie works as a search engine and provides on-the-fly formatting. Chordie does not index songs against artists'/composers' will. To remove this song please click here.

Text color:
Chord color:
Chord grids: 
Font size:    
Page size: 

A A/E B7sus2 Bm7 Bm7/A Bsus2 C#m D D/C# E E/G# F#m F#m/F G
Rate #1 of 3 versions

Jango Player

Login - add to songbook

SHARE PAGE  



You need to log in to post comments