Guitar Tabs, Chords and Lyrics
Server problems seems to be fixed. Chordie has been experiencing problems with songs disappearing. These issues now seems to be fixed, but still verifying the fix. If you find anything strange, please email admin@chordie.com.


Enjoy the Silence   Lacuna Coil

 
 
 I don't know the specific notes for tuning [no chromatic tuner] but to get the right 
 all you have to do is press the flat button on your regular tuner 3 times and tune every 
 except the low E string. Then tune the low E string to match the 4th string's tuning. 
 of like a drop D but in a lower tuning. 
 
 Intro Repeat this once 
 |------------12-12----------------------| 
 |-----15-----------------15------13-13--| 
 |---------------------------------------| 
 |--12----12-----------12----12----------| 
 |---------------------------------------| 
 |---------------------------------------| 
 Repeat this once 
 |----------------------------------------| 
 |------------------------15------13--13--| 
 |----15-----14-14------------------------| 
 |-12----12-----------12-----12-----------| 
 |----------------------------------------| 
 |----------------------------------------| 
 
 Chorus fig 1 
 Rhythm [Marco] 
 |--------------------------------------| 
 |--------------------------------------| 
 |--------------------------------------| 
 |5-5-5-5-5-5-5-5----8-8-8-8-8-8-8-8----| 
 |5-5-5-5-5-5-5-5----8-8-8-8-8-8-8-8----| 
 |5-5-5-5-5-5-5-5----8-8-8-8-8-8-8-8----| 
 
 Repeat Rhythm once 
 |--------------------------------------------| 
 |--------------------------------------------| 
 |--------------------------------------------| 
 |0-0-0-0-0-0-0-0----10-10-10-10-10-10-10-10--| 
 |0-0-0-0-0-0-0-0----10-10-10-10-10-10-10-10--| 
 |0-0-0-0-0-0-0-0----10-10-10-10-10-10-10-10--| 
 
 Lead [Maus] play right away w/ rhythm 
 |------------------12------12---12-13--13---------| 
 |--15-----15------------------------------13-13---| 
 |-------------------------------------------------| 
 |-----12------12-------12-------------------------| 
 |-------------------------------------------------| 
 |-------------------------------------------------| 
 
 Repeat Lead once 
 |--------------------------------------------------| 
 |-----13-------------------------------------------| 
 |-------------14-14-------15------14-14------------| 
 |--12-----12---------12-------12-------------------| 
 |--------------------------------------------------| 
 |--------------------------------------------------| 
 
 Verse Repeat once 
 |-----------------------------------| 
 |-----------------------------------| 
 |-----------------------------------| 
 |-----------------------------------| 
 |-----------------------------------| 
 |---0------3-------8---(8)----------| 
 
 Chorus fig 2 
 |--------------------------------------| 
 |--------------------------------------| 
 |--------------------------------------| 
 |5-5-5-5-5-5-5-5----8-8-8-8-8-8-8-8----| 
 |5-5-5-5-5-5-5-5----8-8-8-8-8-8-8-8----| 
 |5-5-5-5-5-5-5-5----8-8-8-8-8-8-8-8----| 
 Repeat once 
 |--------------------------------------------| 
 |--------------------------------------------| 
 |--------------------------------------------| 
 |0-0-0-0-0-0-0-0---*10-10-10-10-10-10-10-10*-| 
 |0-0-0-0-0-0-0-0---*10-10-10-10-10-10-10-10*-| 
 |0-0-0-0-0-0-0-0---*10-10-10-10-10-10-10-10*-| 
 play this instead of the * section of notes 
 |-------------------------------------------------| 
 |-------------------------------------------------| 
 |-------------------------------------------------| 
 |-11-11-11-11-11-11-11-11-11-11-11-11-11-11-11-11-| 
 |-11-11-11-11-11-11-11-11-11-11-11-11-11-11-11-11-| 
 |-11-11-11-11-11-11-11-11-11-11-11-11-11-11-11-11-| 
 After this play: 
 Intro 
 Verse 
 Chorus fig 2 
 Chorus fig 1 
 Chorus fig 2 
 Chorus fig 1 [twice] 


Important: The song above is NOT stored on the Chordie server. The original song is hosted at chordiearchive.chordie.com. Chordie works as a search engine and provides on-the-fly formatting. Chordie does not index songs against artists'/composers' will. To remove this song please click here.

This song is displayed as text-only. Transposing and tuning is only available for chordpro-songs.
Rate #1 of 1 versions

Login - add to songbook

SHARE PAGE  



You need to log in to post comments