Guitar Tabs, Chords and Lyrics
Server problems seems to be fixed. Chordie has been experiencing problems with songs disappearing. These issues now seems to be fixed, but still verifying the fix. If you find anything strange, please email admin@chordie.com.


Miss Mondo â??99   Ligabue

 
 
 MISS MONDO 99 
 [Intro] 
 DO SOL LAm DO SOL LAm 
 e:--|-----------------|-----------------|-----------------|-----------------| 
 B:--|-----8-------8---|-----5-----------|-----8-------8---|-----5-----------| 
 G:--|---9---9---7---7-|---5--/7-----5---|---9---9---7---7-|---5--/7-----5---| 
 D:-5/10-------9-------|-7---------7-----|10-------9-------|-7---------7-----| 
 A:--|-----------------|-----------------|-----------------|-----------------| 
 E:--|-----------------|-----------------|-----------------|-----------------| 
 
 1 . 2 . 3 . 4 . 1 . 2 . 3 . 4 . 1 . 2 . 3 . 4 . 1 . 2 . 3 . 4 . 
 
 DO SOL 
 e:-----------------| 
 B:-----8-------8---| 
 G:---9---9---7---7-| 
 D:10-------9-------| 
 A:-----------------| 
 E:-----------------| 
 1 . 2 . 3 . 4 . 
 
 LAm SOL 
 Guarda me io sono qua 
 FA DO SOL/SI 
 con tutto quello che vuol dire 
 LAm SOL 
 sono pronto per meta' 
 FA DO SOL/SI 
 per meta' saro' a sentire 
 LAm SOL 
 e poi non cambio mai 
 FA DO SOL/SI 
 mi cambio tutti i giorni 
 LAm SOL 
 sta girando il secolo 
 FA DO SOL/SI RE 
 facci almeno divertire un po' 
 RE 
 divertire un po' 
 
 DO FA 
 [Rit] Saranno lacrime d'amore 
 LAm SOL 
 per miss mondo 99 
 MIm(?) FA DO RE 
 mandaci un bacio siamo tutti quanti qua 
 
 [Fill] |DO SOL |LAm |DO SOL |LAm |LAm | 
 
 Guarda me io sono qua 
 coi conti che ci devi fare 
 fatti solo un po' piu' in la' 
 che non vedo il mondo bene 
 non cambiare mai 
 e cambia tutti i giorni 
 se vedi il mondo diglielo 
 che siamo qui per un motivo noi 
 un motivo noi 
 
 [Rit] Saranno lacrime d'amore 
 per miss mondo 99 
 mandaci un bacio siamo tutti quanti qua 
 
 Saranno lacrime di gioia 
 per miss mondo 99 


Important: The song above is NOT stored on the Chordie server. The original song is hosted at chordiearchive.chordie.com. Chordie works as a search engine and provides on-the-fly formatting. Chordie does not index songs against artists'/composers' will. To remove this song please click here.

This song is displayed as text-only. Transposing and tuning is only available for chordpro-songs.
Rate #1 of 1 versions

Login - add to songbook

SHARE PAGE  



You need to log in to post comments