Guitar Tabs, Chords and Lyrics
Update 25:10. 13:00. Site is back up running again. Songbooks are recovered. Woring on getting search back up..


Everyday  Lisa Loeb



 
 |------------------------0--2--3--2-----0---|

 
 |------------------0--3--------------3------|

 
 |------------0--2---------------------------|

 
 |---------4---------------------------------|

 
 |------2------------------------------------|

 
 |-------------------------------------------|

[1] ] [2] ] [3] ] [4] ] [5] ] [6] ] [1]
 
 |-------------------------------------------|
 |---------------0--3--1--0-----0------------|
 |---------0--2--------------2---------------|
 |------4------------------------------------|
 |---2---------------------------------------|
 |-------------------------------------------|

] [2] ] [3] ] [4] ] [5] ] [6] ]
 
 |-------------------------------------------|
 |----------------0--3--1--0-----0-----------|
 |----------0--2--------------2--------------|
 |-------4-----------------------------------|
 |----2--------------------------------------|
 |-------------------------------------------|

[1] ] [2] ] [3] ] [4] ] [5] ] [6] ]
 
 |-------------------------------------------|
 |----------------0--3--1--0-----0-----------|
 |----------0--2--------------2--------------|
 |-------4-----------------------------------|
 |----2--------------------------------------|
 |-------------------------------------------|

[1] ] [2] ] [3] ] [4] ] [5] ] [6] ] [Em] [G] [Em] [G] [Em] [G] [Em] [G] [Em]Goodbye my [G]love,[Em] I am [G]going,[Em] I am [G]slowing you [D]down
I can [C9]feel you stop [G]breathing when I come aroun[D]d
Iím slowing you do[Em]wn[G] [Em] [D]
[Em] Everyday[D] [Em] Everyday[D] [Em] Everyday[Bm] [Em] Everyday[D]
[C9]Love turns its back and just sta[Bm]nds in my wa[Em]y
Em G (4x)
[Em]Goodbye my [G]love,[Em] you donít [G]get me
[Em]You donít [G]let me insid[D]e
You [C9]once kept me [G]close when you wanted to hi[D]de
You [C9]pulled me in [G]close just to push me as[D]id[Dsus]e[D]
Goodbye[Em] [G] [Em] [D]
[Em] Everyday[D] [Em] Everyday[D] [Em] Everyday[Bm] [Em] Everyday[D]
[C9]Love turns its back just to s[Bm]tand in my wa[Em]y
(just play the low strings)
 
 |--------------------------------------|
 |--------------------------------------|
 |--------------------------------------|
 |---2---0---0---0---0---0---0----X-----|
 |---2---2---2---5---7---8---10---11----|
 |---0---2---3---5---7---8---10---11----| 

[Em]Goodbye my [D]love, Iím [Em]going a[G]way
I [Em]know you wonít [G]follow me fa[D]r
[C9]Once I went [G]out just to look at the s[D]tars
I [C9]asked you to [G]join me, but you were too [Em]tired
 
 |-----------------------------------------|
 |-----------3-----------------3-----------|
 |--------2-----2-----------2-----2--------|
 |-----0-----------0-----0-----------0-----|
 |-----------------------------------------|
 |--1-----------------1--------------------|

I want- ed
 
 |-----------------------------------------|
 |-----------3-----------------3-----------|
 |--------2-----2-----------2-----2--------|
 |-----0-----------0-----0-----------0-----|
 |-----------------------------------------|
 |--2-----------------2--------------------|

you
 
 |-----------------------------------------|
 |-----------3-----------------3-----------|
 |--------0-----0-----------0-----0--------|
 |-----0-----------0-----0-----------0-----|
 |-----------------------------------------|
 |--3-----------------3--------------------|

to see them
 
 |-----------------------------------------|
 |-----------3-----------------3-----------|
 |--------0-----0-----------0-----0--------|
 |-----2-----------2-----2-----------2-----|
 |--3-----------------3--------------------|
 |-----------------------------------------|

too
 
 |-----------------------------------------|
 |-----------3-----------------3-----------|
 |--------0-----0-----------0-----0--------|
 |-----0-----------0-----0-----------0-----|
 |-----------------------------------------|
 |--1-----------------1--------------------|

why did I
 
 |-----------------------------------------|
 |-----------3-----------------3-----------|
 |--------0-----0-----------0-----0--------|
 |-----2-----------2-----2-----------2-----|
 |--3-----------------3--------------------|
 |-----------------------------------------|

let my- self need
[Em]you?[G] [Em] [G] [Em] [G] [Em] [G]
[Em] [Bm] [Em] [D] [Em] [Bm] [Em] [D] [Em] Everyday[D] [Em] Everyday[D] [Em] Everyday[Bm] [Em] Everyday[D]
[C9] [Bm] [Em] Em G (4x)
[Em]Goodbye my [G]love,[Em] I am [G]going,[Em] I am slowing you dow[D]n
I can [C9]feel you stop [G]breathing... when I come arou[D]nd[Dsus] [D]
Iím slowing you do[Em]wn[G] [Em] [D]
[Em] Everyday[D] [Em] Everyday[D] [Em] Everyday[Bm] [Em] Everyday[D]
[C9]Love turns its back and just sta[Bm]nds in my wa[Em]y[C9] [Bm] [Em]
Adapted from transcription by T?a Smith (tealou@iinet.net.au)
by Jocelyn Pierpont (jociep@hotmail.com)
www.angelfire.com/co3/trinity/lisa.html

Important: The song above is NOT stored on the Chordie server. The original song is hosted at chordiearchive.chordie.com. Chordie works as a search engine and provides on-the-fly formatting. Chordie does not index songs against artists'/composers' will. To remove this song please click here.

Text color:
Chord color:
Chord grids: 
Font size:    
Page size: 

Bm C9 D Dsus Em G
Rate #3 of 3 versions

Jango Player

Login - add to songbook

SHARE PAGE  



You need to log in to post comments