Guitar Tabs, Chords and Lyrics
Update 25:10. 13:00. Site is back up running again. Songbooks are recovered. Woring on getting search back up..


Riding for a Fall  Mad Caddies



[G]Someday someone will make yo[Em]u cry yeah, yeah
[G]Then youíll gonna have tear [Em]drops in your eyes no, no
[C]So go ahead a[Em]nd have your fun girl
[C]Donít you kno[Em]w I'm still in love with you girl
[C]Go ahead and [Em]have yourself a ba[D]ll
[Em]Youíre riding for a fall (watch it)
[G]Someday somebody will break your [Em]heart
(You got to look for your judgment as I would tell ya)
[G]Then youíll gonna wish that we had [Em]never part
(You're gonna wish that we never part cause I was saying)
[C]So go ahead and [Em]have your fun girl
(Have a fun as I would tell ya)
[C]Donít you know Ií[Em]m still in love with you girl
[C]Go ahead (Go ahead and) [Em]and have yourself a bal[D]l
Youíre riding for a fa[Em]ll
Youíre riding for a fa[G]ll
(Yes black and white Mad Caddies have come to tell ya)
Solo
 
 e|------------------------------------------------------|
 B|--0---------------------------------------------------|
 G|--0------4------------------7------7----7--9---7------|
 D|----------5--5-5-5-5---/9------9------9---------------|
 A|------------------------------------------------------|
 E|------------------------------------------------------|
 

Solo (cont.)
 
 e|------------------------------------------------------------------|
 B|------8---------8--------8-----8--10--8--12-----12-12--13-12-8----|
 G|--7h9------7h9-------7h9----------------------------------------5-|
 D|------------------------------------------------------------------|
 A|------------------------------------------------------------------|
 E|------------------------------------------------------------------|
 

(Youíre riding for a fall)
(Yeah)
[C]So go ahead and have your fun gi[Em]rl
(Go ahead and have your fun)
[C]Donít you know Iím still in love with you gi[Em]rl
[C]Go ahead and [Em]have yourself a ba[D]ll
Youíre riding for a fa[Em]ll
Youíre riding for a fa[Em]ll
(Make you cry baby girl)
[G]Yeah, yeah, no, no, no
Youíre riding for a fa[Em]ll all alone say
(Tear drops in your eye as I was saying)
[G]Yeah youíre riding; I said youíre riding for a [Em]fall
(Youíre riding for a fall)
[G]Youíre riding for a fall
(Riding, riding, riding, riding, them girls got ya riding, riding for a fall)
[Em](Riding for a fall)
[G]Youíre riding for a fall
(Riding for a fall, riding for a fall)
Youíre riding for a fa[Em]ll
That last part just sort of repeats.
I'm almost positive that this is 100% correct...It's a great song, Enjoy!

Important: The song above is NOT stored on the Chordie server. The original song is hosted at chordiearchive.chordie.com. Chordie works as a search engine and provides on-the-fly formatting. Chordie does not index songs against artists'/composers' will. To remove this song please click here.

Text color:
Chord color:
Chord grids: 
Font size:    
Page size: 

C D Em G
Rate #3 of 3 versions

Login - add to songbook

SHARE PAGE  



You need to log in to post comments