Guitar Tabs, Chords and Lyrics
Server problems seems to be fixed. Chordie has been experiencing problems with songs disappearing. These issues now seems to be fixed, but still verifying the fix. If you find anything strange, please email admin@chordie.com.


Door jou  Marco Borsato



 
 e|-----6--------5--------6--------5--------6--------5--------6----1-|
 

 
 B|---3---3----3---3----3---3----3---3----3---3----3---3----3---3--1-|
 

 
 G|-3--------3--------3--------3--------3--------3--------3--------2-|
 

 
 D|----------------------------------------------------------------3-|
 

 
 A|----------------------------------------------------------------3-|
 

 
 E|----------------------------------------------------------------1-|
 

T[D#]oen liep jij m'n leven in
M[Cm]in werd p[Bb]lus en p[D#]lus werd [F]min
Door j[C]ou
Staat heel m'n l[Dm]even op z'n k[G]op [F]
[C]En zonder jo[Dm]u kom ik er n[G]ooit meer boven[F]op[G]
[C]Ik ken mez[Dm]elf niet meer
En n[G]iets is n[Am]og vertro[F]uwd
Dat komt all[G]emaal
Door j[C]ou
“C” “F---”
 
 e|-----8--------7--------8--------1-|
 B|---5---5----5---5----5---5------1-|
 G|-5--------5--------5------------2-|
 D|--------------------------------3-|
 A|--------------------------------3-|
 E|--------------------------------1-|
 

Steen voor steen 'n muur gebouwd
Ik vond alles goed, maar dat was fout
Thuis was veilig, fijn alleen
Maar jij liep dwars door alles heen
Door jou
Staat heel m'n leven op z'n kop
En zonder jou kom ik er nooit meer bovenop
Ik ken mezelf niet meer
En niets is nog vertrouwd
Dat komt allemaal
Door j[C]ou
Zijn alle n[F]achten licht
Z[C]elfs met m'n [Am]ogen dicht
[Dm]Alles wat d[Am]onker was
Is w[Bb]eggeg[Am]aan
[G]Ik zie de st[Am]erren weer
W[Em]ant er zijn geen w[F]olken meer
[Dm]Ze zijn vertr[C]okken
F G C (Riff.1)
Toen ik jou zag staan
Door j[D]ou
Staat heel m'n l[Em]even op z'n k[A]op [G]
[D]En zonder jo[Em]u kom ik er n[A]ooit meer boven[G]op[A]
[D]Ik ken mez[Em]elf niet meer
En n[A]iets is n[Bm]og vertro[G]uwd
Dat komt all[A]emaal
Door jou
Staat heel m'n leven op z'n kop
En zonder jou kom ik er nooit meer bovenop
Ik ken mezelf niet meer
En niets is nog vertrouwd
Dat komt allemaal
D Em | A G
Door jou
D Em | A G
Door jou
Door j[D]ou[Em]
Ik ken m[A]ezelf niet meer[D] [G]
Dat komt a[A]llemaal
Door j[D]ou
Good luck grts da kaak

Important: The song above is NOT stored on the Chordie server. The original song is hosted at chordiearchive.chordie.com. Chordie works as a search engine and provides on-the-fly formatting. Chordie does not index songs against artists'/composers' will. To remove this song please click here.

Text color:
Chord color:
Chord grids: 
Font size:    
Page size: 

A Am Bb Bm C Cm D D# Dm Em F G
Rate #1 of 3 versions

Jango Player

Login - add to songbook

SHARE PAGE  




You need to log in to post comments