Guitar Tabs, Chords and Lyrics
Major upgrade!! After one year development the new version of Chordie is now online! Please give feedback.


Change Is Gonna Come  The Marshall Tucker Band



[Dm7] [Am7] [Gm7]  
 
 E|-----1-------0-------3----------------|
 B|-----1-------1-------3----------------|
 G|-----2-------0-------3----------------|
 D|-----0-------2-------3----------------|
 A|---------------------5----------------|
 E|---------------------3----------------|
 

Intro/Rhythm Pattern Throughout:
[Dm7]  
 
 E|---------1---1---(1)----0-----------1---1---1-|
 B|-----1---1---1---(1)------------1---1---1---1-|
 G|--2------2---2---(2)--------2-------2---2---2-|
 D|----------------------------------------------|
 A|----------------------------------------------|
 E|----------------------------------------------|
 

[Am7]  
 
 E|--0-------------------------------------------|
 B|--------1---1---1---(1)---1---------1---1---1-|
 G|-----2--------------------------0-------------|
 D|------------2---2---(2)------3------2---2---2-|
 A|----------------------------------------------|
 E|----------------------------------------------|
 

There was a t[Dm7]ime I dreamed about [Am7]money
There was a [Dm7]day I feared growing [Am7]old
Many [Dm7]times have come when I think ab[Am7]out you honey
If you l[Dm7]eave me girl I got nowhere to [Am7]go
And I [Gm7]know and I know
A change is gonna [Dm7]come some[Am7]day
And I [Dm7]know a change is gonna [Am7]come
Do you re[Dm7]member a long long time a[Am7]go
You would [Dm7]follow me all the time
And everywhere I'd [Am7]go
Now I [Dm7]find myself I got a pot of gold
Living on another n[Am7]ame
And what I [Dm7]got to know is it still the [Am7]same
And I [Gm7]know and I know
A change is gonna [Dm7]come some[Am7]day
And I [Dm7]know a change is gonna [Am7]come
Solo: Dm7 Am7 Dm7 Am7 Gm7 Dm7 Am7
Repeat chorus and continue pattern on outro

Important: The song above is NOT stored on the Chordie server. The original song is hosted at chordiearchive.chordie.com. Chordie works as a search engine and provides on-the-fly formatting. Chordie does not index songs against artists'/composers' will. To remove this song please click here.

Text color:
Chord color:
Chord grids: 
Font size:    
Page size: 

Am7 Dm7 Gm7
Rate #4 of 4 versions

Login - add to songbook

SHARE PAGE  



You need to log in to post comments