Guitar Tabs, Chords and Lyrics
Server problems seems to be fixed. Chordie has been experiencing problems with songs disappearing. These issues now seems to be fixed, but still verifying the fix. If you find anything strange, please email admin@chordie.com.


Loose Tongue  Neil Finn



 
 ---------------------------|---------------------7--||
 

 
 ---------------------------|------------------------||
 

 
 -10>9--7--9>7-----7--------|-10>9--7--9>7-----7-----||
 

 
 ---------------9-----9-----|---------------9--------||
 

 
 ---------------------------|------------------------||
 

 
 ---------------------------|------------------------||
 

[E]I'd crawl over broken glass
[D6]if we could start again
[E]before our plans were made
[D6]when the world was young
[E]the house is falling down
[D6]because of my loose tongue
VERSE:
Shouldn't say so much
shouldn't talk so loud
No sooner on your lips
then it's all over town
in all our given days
how many gone to waste
a good man has been hung
because of my loose tongue
BRIDGE: Em
Your skin is changing it's [G]hue
your god is coming down [Em]fast
it looks like someone I [G]knew
uncovered happiness at [A7]last
VERSE:
And all the wagging tongues
too much information
in the future now
under massive doubt
the papers on the street
get trampled under feet
[A]and they settle for a princely sum (no..no..no..) [G]
good will is [Em]coming down
when it [G]rains
your well is [A7]full
You shouldn't ask me
shouldn't ask me
....nose keeps growing
....and after some time you get what you're knowing
....sidecar? superman
....and that's not nothing you wandering for, yeah
CODA GUITAR PART (variations on this basic theme):
 
 -------------------------------------||
 --10---9---------------9--10--9------||
 -----------7--------7-------------7--||
 ---------------10--------------------||
 -------------------------------------||
 -------------------------------------||
 

He's only
halfway through his life
He's only
used up all his time
(c) 1996 by Roundhead Music, administered by Wixen Music Publishing (BMI)/Sony
Music Publishing Australia/Sprint Music Pty. Ltd. All Rights administered by
Sony/ATV Songs LLC (BMI)
(Transcription by Marck Bailey)
</xmp>

Important: The song above is NOT stored on the Chordie server. The original song is hosted at chordiearchive.chordie.com. Chordie works as a search engine and provides on-the-fly formatting. Chordie does not index songs against artists'/composers' will. To remove this song please click here.

Text color:
Chord color:
Chord grids: 
Font size:    
Page size: 

A A7 D6 E Em G
Rate #1 of 3 versions

Jango Player

Login - add to songbook

SHARE PAGE  



You need to log in to post comments