Guitar Tabs, Chords and Lyrics
Major upgrade!! After one year development the new version of Chordie is now online! Please give feedback.


Souvenir  Neil Finn



 
 -----------------------||
 

 
 -----------------------||
 

 
 -11>9--------11>9------||
 

 
 -------9---------------||
 

 
 ------------------12---||
 

 
 -----------------------||
 

Don't ask the [E]question [D6] [F#m]
cos you won't like the [E]answer [D6] [F#m]
get up off your [E]chair [D6] [F#m]
there's nothing for you [A]here
CHORUS:
[D]Where the [A]guests like souvenir[D]s
[A]they play [D]with you [A]til you're al[D]l worn out
[A]back [D]there the [A]guests like souv[D]enirs [E] [D6] [F#m]
VERSE:
Prison colour blue
it's a uniform of choice
count yourself lucky
and you don't write the software
CHORUS:
and the guests like souvenirs
they play with you till you're all worn out
back where the guests take photographs
they hope you had a good night
BRIDGE:
[G] [A] [Bb] [A]  
Loosen up [G]your tie [A] [Bb] [A]
make the [G]viewers cry
[A]I cannot p[Bb]retend to [E]cry [D6] [F#m]
SOLO:
 
 ---------------------------------------------------------------|----------||
 ---------------------------------------------------------------|----------||
 --------------9>11--------------9>11--------------9>11-11--11--|-11>9-----||
 --------9>11--------------9>11--------------9>11---------------|----------||
 --9>11--------------9>11--------------9>11---------------------|-------12-||
 ---------------------------------------------------------------|----------||
 

VERSE:
Memorise by heart
every single part
there's nothing for you here
CHORUS:
Where the guests like souvenirs
they play with you til you're all worn out
back where the guests like souvenirs
they hope you had a good night
[G] [A] [Bb] [A]  
[G]Each[A] night I [Bb]would fall[A]
right[G] off the stairs[A]
no one[Bb]'s in p[A]rayer (?)
CODA: (instrumental, no words)
G(III) A6/C#* F#m D
G(III) A6/C# F#m E G
(c) 1997 by Roundhead Music, Administered by Wixen Music (BMI)
(Transcription by Marck Bailey)

Important: The song above is NOT stored on the Chordie server. The original song is hosted at chordiearchive.chordie.com. Chordie works as a search engine and provides on-the-fly formatting. Chordie does not index songs against artists'/composers' will. To remove this song please click here.

Text color:
Chord color:
Chord grids: 
Font size:    
Page size: 

A Bb D D6 E F#m G
Rate #1 of 3 versions

Jango Player

Login - add to songbook

SHARE PAGE  



You need to log in to post comments