Guitar Tabs, Chords and Lyrics
Major upgrade!! After one year development the new version of Chordie is now online! Please give feedback.


Inside Job  Pearl Jam



 
 e----------
 

 
 B-1--9-----
 

 
 G-0--9-----
 

 
 D-0--9-----
 

 
 A-2--7-----
 

 
 E----------
 

[C]Underneath this smile lies every[Em]thing
[C]All my hopes and anger, pride and [Em]shame
[C]Make myself a pact not to [Em]shut doors on the past Just
[C]for today I am [Em]free
C B* Am7 D
I'll not lose my faith
C B* Am7 D
It's an inside job to- day
C B* Am7 C Em C Em
I know this one thing well…
I [C]used to try and kill love, it was the highes[Em]t sin
[C]Breathing insecurity out and [Em]in
[C]Searching hope, I'm shown the way to [Em]run straight
Pursuing the greater way for [C]all human [Em]light.
How I [C]choose to feel is how I [Em]am.
How I [C]choose to feel is how I [Em]am.
C B* Am7 D
I'll not lose my faith
C B* Am7 D
It's an inside job to- day
C B*
Holding on, the light of night
[Am7]On my knees to [A#]rise and fix my [Am7]broken soul [A#]Again
E D C D (x6, E@7th D@5th C@3rd)
Solo (x2)
 
 |-----------------------------|----------------------|
 |--15b17-r15--13----12--------|----------------------|
 |-----------------------12----|----------------------|
 |-----------------------------|--12----L-------------|
 |-----------------------------|----------------------|
 |-----------------------------|----------------------|
 |-----------------------------|--15------------------|
 |--15b17-r15--13----12--------|----------15----------|
 |-----------------------12----|----------------------|
 |-----------------------------|----------------------|
 |-----------------------------|----------------------|
 |-----------------------------|----------------------|
 

C B* Am7 D
Let me run into the rain
C B* Am7 D
To be a human light a - gain
C B* Am7 D
Let me run into the rain
C B* Am7 D
To shine a human light to - day
C B* Am7 F Am7 C F Am7 C D
Life comes from with - in your heart and de - sire
C B* Am7 F Am7 C F Am7 C D
Life comes from with - in my heart and de - sire

Important: The song above is NOT stored on the Chordie server. The original song is hosted at chordiearchive.chordie.com. Chordie works as a search engine and provides on-the-fly formatting. Chordie does not index songs against artists'/composers' will. To remove this song please click here.

Text color:
Chord color:
Chord grids: 
Font size:    
Page size: 

A# Am7 C Em
Rate #2 of 6 versions

Jango Player

Login - add to songbook

SHARE PAGE  



You need to log in to post comments