Guitar Tabs, Chords and Lyrics
Major upgrade!! After one year development the new version of Chordie is now online! Please give feedback.


World War 24  Ryan Adams



 
 e|-------|-------|
 

 
 H|----3--|----3--|
 

 
 G|--0----|--0----|
 

 
 D|-4-4---|-4-4---|
 

 
 A|-------|-5-----|
 

 
 E|-------|-------|
 

 
 e|-------|-------|-------|-------|-------|-------|-------|-------|
 

 
 H|----3--|----3--|----3--|----3--|----3--|----3--|----3--|----3--|
 

 
 G|--0----|--0----|--0----|--0----|--0----|--0----|--0----|--0----|
 

 
 D|-4-4---|-4-4---|-4-4---|-4-4---|-4-4---|-4-4---|-4-4---|-4-4---|
 

 
 A|-5-----|-5-----|-5-----|-5-----|-5-----|-5-----|-5-----|-5-----|
 

 
 E|-------|-------|-3-----|-3-----|-0-----|-0-----|-3-----|-3-----|
 

[C]She don't even ask what [G]time it is anymore [D] [Dsus4] [D7] [D7(sus2]
[C]Dressed up like its [G]World War 24
Intro (a) is the played before second verse.
2. Verse: (You play the same as in Intro (b) along with the lyrics.)
Sugar sweet
She loves it when it hits her teeth
The river hides the carousel
In London, oh well
Coma comes
Like bullets from a candy gun
Delivers us into the sun
Of London, my love
Chorus:
She don't even ask what time it is anymore
Dressed up like its World War 24
Solo (Intro (b) is played here)
Bridge:
[F]And if we get too h[F#]igh
We'll [Bm]burn [A]this [G]town
[A]We'll [Bm]burn [A]this [G]town
[A]We'll [Bm]burn [A]this [G]town
Outro:
G D/f# Em G
Oh, baby, bring me down
Oh, [A]baby, bring me [Em]down [G]
Oh, [A]baby, bring me [Em]down [G]
Oh, [A]baby, bring me [Em]down [G]
[A]I'm all y[Em]ours [G] [A] [Em] [G]
[A]I'm all y[Em]ours [G] [A] [Em] [G]
[A]I'm all y[Em]ours [G] [A] [Em] [G]
Keep playing these chords for a while and end the song on the Em chord
Enjoy!!!

Important: The song above is NOT stored on the Chordie server. The original song is hosted at chordiearchive.chordie.com. Chordie works as a search engine and provides on-the-fly formatting. Chordie does not index songs against artists'/composers' will. To remove this song please click here.

Text color:
Chord color:
Chord grids: 
Font size:    
Page size: 

A Bm C D D7 Dsus4 Em F F# G
Rate #1 of 3 versions

Jango Player

Login - add to songbook

SHARE PAGE  




You need to log in to post comments