Guitar Tabs, Chords and Lyrics
Server problems seems to be fixed. Chordie has been experiencing problems with songs disappearing. These issues now seems to be fixed, but still verifying the fix. If you find anything strange, please email admin@chordie.com.


Wake Up Sleeping  The Saw Doctors



 
 e-----------------------|-------------------|-----------------------|-------------------|
 

 
 B-----------------------|-------------------|-----------------------|-------------------|
 

 
 G-----------------------|-------------------|-----------------------|-------------------|
 

 
 D-----------(5-5-5-4-2)-|-----------(S7--5)-|-----------(5-5-5-4-2)-|-----------(S7--5)-|
 

 
 A-2---5-----------------|-2---5-------------|-2---5-----------------|---2--0------------|
 

 
 E--------3--------------|--------3----------|--------3--------------|---------3---------|
 

I've got [D]loads and loads of [G]patience
And I'm [D]just as proud as [C]you
If it [D]goes until I'm [C]dead and gone
I won't come [C]running on after [D]you
But if [D]you enjoy re[G]membering
When [D]you were my best [C]friend
I'd [D]eally love to w[C]ake up sleeping
[C]In your arms a[G]gain [D]
Repeat 1st two bars of intro
(same chords)
There was kids outside the window
On their first day back at school
The morning after our first night
Me and you alone
On the second of September
I knew I'd found a friend
I'd really love to wake up sleeping
In your arms again
(solo - Below)
(Same Chords)
I've never been this lonely
And there's nowhere I can turn
But there must be strength in lonliness
And lessons to be learnt
You broke my heart in smithereens
I swear it will not mend
I'd really love to wake up sleeping
In your arms again
Solo:
 
 e-----------------------------------|-----------------|
 B-----------------------------------|-----------------|
 G-----------------------------------|-----------------|
 D--4------4------------(5-5-5-4-2)--|---------(S7--50-|
 A-----2-----5---2-0--3--------------|-2---5-----------|
 E-----------------------------------|--------3--------|
 e-----------------------------------|--------------------|
 B-----------------------------------|--------------------|
 G-----------------------------------|--------------------|
 D--4------4------------(5-5-5-4-2)--|--4------4-----4--5-|
 A-----2-----5---2-0--3--------------|-----2------2-------|
 E-----------------------------------|--------------------|
 


Important: The song above is NOT stored on the Chordie server. The original song is hosted at chordiearchive.chordie.com. Chordie works as a search engine and provides on-the-fly formatting. Chordie does not index songs against artists'/composers' will. To remove this song please click here.

Text color:
Chord color:
Chord grids: 
Font size:    
Page size: 

C D G
Rate #1 of 4 versions

Login - add to songbook

SHARE PAGE  



You need to log in to post comments