Guitar Tabs, Chords and Lyrics
Major upgrade!! After one year development the new version of Chordie is now online! Please give feedback.


See Thru   Staind

 
 
 Band- Staind 
 Song- See Thru 
 
 Tuning: Ab Db Ab Db Gb Bb 
 
 Intro/chorus 
 |-----------------------------| 
 |-----------------------------| 
 |-----------------------------| 
 |-3/2-0-0-2-0-2-0-2-3-2-0-2-0-| 
 |-3/2-0-0-2-0-2-0-2-3-2-0-2-0-| 
 |-----------------------------| 
 
 |-----------------| 
 |-----------------| 
 |-[7]-[7]-[7]-[7]-| 
 |-----------------| 
 |-----------------| 
 |-----------------| 
 put these in there 
 ([#]= artificial harmonic) 
 
 verse 
 |-----------------| 
 |-----------------| 
 |-----------------| 
 |-2-3-2-0-2-3-0-2-| 
 |-2-3-2-0-2-3-0-2-| 
 |-----------------| 
 once again put those harmonics on there 
 
 fill to chorus 
 |-------------| 
 |-------------| 
 |-------------| 
 |-0-3-0-3/5-0-| 
 |-0-3-0-3/5-0-| 
 |-------------| 
 
 Interlude 
 |--3--------------------------------------------| 
 |--2----2p0-------------------------------------| 
 |--0--------0---0---0-----0-3-------------------| 
 |--0--3-------3---3---2h3---2-3p0-0-3-5---------| 
 |--0--------------------------3p0-0-3-5---------| 
 |-----------------------------------------------| 
 
 Next riff 
 |--------------| 
 |--------------| 
 |--------------| 
 |--3p0--0-3-5--| 
 |--3p0--0-3-5--| 
 |--------------| 
 
 Next one 
 |-----------| 
 |-----------| 
 |-----------| 
 |-5-x-5-x-x-| 
 |-5-x-5-x-x-| 


Important: The song above is NOT stored on the Chordie server. The original song is hosted at chordiearchive.chordie.com. Chordie works as a search engine and provides on-the-fly formatting. Chordie does not index songs against artists'/composers' will. To remove this song please click here.

This song is displayed as text-only. Transposing and tuning is only available for chordpro-songs.
Rate #1 of 1 versions

Jango Player

Login - add to songbook

SHARE PAGE  



You need to log in to post comments