Guitar Tabs, Chords and Lyrics
Server problems seems to be fixed. Chordie has been experiencing problems with songs disappearing. These issues now seems to be fixed, but still verifying the fix. If you find anything strange, please email admin@chordie.com.


Seized Up   The Suicide Machines

 
 
 Seized Up - The Suicide Machines 
 
 Tabbed by: Frank 
 Email: phrank496 [at] gmail [dot] com 
 
 Tuning: Standard 
 
 Intro x5 
 e|--------------------------|---------------| 
 B|--------------------------|---------------| 
 G|--------------------------|--77-5-7-7-----| 
 D|--------------------------|--77-5-7-7-7~--| 
 A|--10101010-1212-77777777--|--55-3-5-5-7~--| 
 E|---8-8-8-8-1010-55555555--|-----------5~--| 
 
 Pre-Verse 
 x3 
 e|------------------|---------------| 
 B|------------------|---------------| 
 G|------------------|------77-7-9~--| 
 D|------777---------|--555-77-7-9~--| 
 A|--555-555-7-xx77--|--555-55-5-7~--| 
 E|--333-----5-xx55--|--333----------| 
 
 Verse 
 e|----------------------------------| 
 B|----------------------------------| 
 G|----------555-77----------555-7-7-| 
 D|--777-555-555-77--777-555-555-7-7-| x4 
 A|--777-555-333-55--777-555-333-5-5-| 
 E|--555-333---------555-333---------| 
 
 Pre/Post Chorus 
 e|------------------------| 
 B|------------------------| 
 G|--------77777-----------| 
 D|--55555-77777-77777777--| 
 A|--55555-55555-77777777--| 
 E|--33333-------55555555--| 
 
 Chorus 
 e|-------------------| 
 B|-------------------| 
 G|------77-----------| 
 D|--55--77-----------| x4 
 A|--55--55-77777777--| 
 E|--33-----55555555--| 
 
 Pre/Post Chorus 
 e|------------------------| 
 B|------------------------| 
 G|--------77777-----------| 
 D|--55555-77777-77777777--| 
 A|--55555-55555-77777777--| 
 E|--33333-------55555555--| 
 
 
 Verse 
 Pre-Chorus 
 Chorus 
 
 Post-Chorus 2 
 e|--------------| 
 B|--------------| 
 G|------77------| 
 D|--55--77--7~--| 
 A|--55--55--7~--| 
 E|--33------5~--| 
 
 Intro 
 Pre-Verse 
 Verse 
 Chorus 
 
 End with Post-Chorus 2 
 e|--------------| 
 B|--------------| 
 G|------77------| 
 D|--55--77--7~--| 
 A|--55--55--7~--| 
 E|--33------5~--| 
 
 END 
 


Important: The song above is NOT stored on the Chordie server. The original song is hosted at chordiearchive.chordie.com. Chordie works as a search engine and provides on-the-fly formatting. Chordie does not index songs against artists'/composers' will. To remove this song please click here.

This song is displayed as text-only. Transposing and tuning is only available for chordpro-songs.
Rate #1 of 1 versions

Jango Player

Login - add to songbook

SHARE PAGE  



You need to log in to post comments