Guitar Tabs, Chords and Lyrics
Major upgrade!! After one year development the new version of Chordie is now online! Please give feedback.


Alarum   The Tea Party

 
 
 Alarum - Tea Party 
 
 |-------------------------------------------------------| 
 |--1p0----------------------------1p0-------------------| 
 |.-----2---2p1------------------------2---2p1----------.| 
 |.-------3-----2---0h2---0h2------------3-----2---0h2--.| 
 |-------------------------------------------------------| 
 |----------------0-----0------------------------0-------| 
 let all strings ring 
 
 On the recording of this song one guitar plays the part I put in brackets 
 and the other plays the other. But you can play it all on one guitar if 
 you want. Played with distortion! 
 |-----------0--0--0--0-----------------------0--0--0--0-------------------| 
 |-----------0--0--0--0-----------------------0--0--0--0-------------------| 
 |.---------16-17-16-14----------------------16-17-16-14--[4h5-4--3/5]----.| 
 |.----------x--x--x--x--(------------2)------x--x--x--x------------------.| 
 |----------14-15-14-12--(3-2-3-2-3-2--)-----14-15-14-12--(3-2-3-2-3-2--)--| 
 |--12\\\-0*-------------------------------0*-------------(------------1)--| 
 *let ring The square brackets are what is 
 played the last line instead of the 
 other brackets [...end is getting 
 near] 
 
 option 1 option 2 
 |-----------------------------------|-------------------------------------| 
 |-/15---13---12---10---12h13-12p10--|-/15---13---12---10---12/13-12\10----| 
 |-----------------------------------|---x----x----x----x----x--x--x--x----| 
 |-/15---14---12---10---12h14-12p14--|-/12---10----9----7----9/10--9\-7----| 
 |-----------------------------------|---0----0----0----0----0--0--0-------| 
 |-----------------------------------|-------------------------------------| 
 If you are playing it with two guitars you might want to play a line each 
 of option 1. If playing with one then Option 2 is easier and will sound 
 more fuller. 
 
 |-----------------------------------------------------|-------------| 
 |-----------------------------------------------------|-------------| 
 |-------------------------9b10------------------------|-----9b10----| 
 |--2---3-2---3-2--2------x----------2---3-2---3-2--2--|----x--------| 
 |--2---3-2---3-2--2-----x-----------2---3-2---3-2--2--|---x---------| 
 |--0---1-0---1-0--0----x------------0---1-0---1-0--0--|--x----------| 
 rake strings rake 
 
 Bridge section 
 |--------------------------------------------------| 
 |--13-13-13-12-12-12-10-10-10--9--9--9----9--------| 
 |--------------------------------------10---10--9--| 
 |--------------------------------------------------| 
 |--------------------------------------------------| 


Important: The song above is NOT stored on the Chordie server. The original song is hosted at chordiearchive.chordie.com. Chordie works as a search engine and provides on-the-fly formatting. Chordie does not index songs against artists'/composers' will. To remove this song please click here.

This song is displayed as text-only. Transposing and tuning is only available for chordpro-songs.
Rate #1 of 1 versions

Jango Player

Login - add to songbook

SHARE PAGE  



You need to log in to post comments