Guitar Tabs, Chords and Lyrics
Major upgrade!! After one year development the new version of Chordie is now online! Please give feedback.


Old Town New  Tim McGraw



 
 e|-------0---0-0-----------1-1-1---------0-0-0--------------1-1-1-----------------|
 

 
 B|-------1---1-1-----------0-0-0---------1-1-1--------0-0---0-0-0-----------------|
 

 
 G|-------2---2-2-----------0-0-0---------2-2-2------2-----2-0-0-0-----------------|
 

 
 D|-----0-0h2-2-2--2p0------0-0-0-------0-2-2-2--2p0---------0-0-0-----------------|
 

 
 A|-0h2----------------0h2--2-2-2---0h2----------------------2-2-2-----------------|
 

 
 E|-------------------------3-3-3----------------------------3-3-3-----------------|
 

[Am] [G] [Am] [G] 
leave, with a freeway view, sittin' on my hood, thinking 'bout you
[Em] [Bm] [C] 
going over in my mind, every kiss and every fight, yeah the fool on the hill,
 
 D ---> e|-----3---2--|
 B|-----3---3--|
 is beatin' down another night G|---2---2----|
 D|-0----------|
 

[Am] [G] [Am] [G] 
There were days so hard, I thought I had to go, I'd get in my car, and just follow the road
But this [Em]is my home, and it's [Bm]who I am, and I [C]know I'd stay, if I could [D]make this...
<CHORUS>
[Am] [G6] [C] [G] [D] 
old town new again, a color other than blue again, I'd have something to do again,
[C] [G]  
instead of thinking 'bout you again
[Em] [D] [C] [G6] 
But the people I know, the places I go, remind me of you
Am D Am...
won't somebody come around, and make this old town new
There were nights so long, I thought the sun burned out
There were girls so wrong, I don't wanna talk about
I was burnin' up the night, yeah in an alcohol flame
Lightin' up my way, tryin' to make this
CHORUS
[Em] [D] [C] [G6] 
Yeah the people I know, the places I go, remind me of you
[Am] [G6] [C] [G] 
Oh and love goes wrong but life goes on and I know what I gotta do
C? Am D Am
I'm just hangin' around, tryin' to make this old town... new
\\\\\
Song fades alternating Am and G...
[/////] 

Important: The song above is NOT stored on the Chordie server. The original song is hosted at chordiearchive.chordie.com. Chordie works as a search engine and provides on-the-fly formatting. Chordie does not index songs against artists'/composers' will. To remove this song please click here.

Text color:
Chord color:
Chord grids: 
Font size:    
Page size: 

Am Bm C D Em G G6
Rate #1 of 4 versions

Jango Player

Login - add to songbook

SHARE PAGE  




You need to log in to post comments