Guitar Tabs, Chords and Lyrics
Server problems seems to be fixed. Chordie has been experiencing problems with songs disappearing. These issues now seems to be fixed, but still verifying the fix. If you find anything strange, please email admin@chordie.com.


Der Untermensch   Type O Negative

 
 
 Hi. Here is a tab for "Der Untermench" perfomed by TYPE O NEGATIVE. Hope I've done 
 it right. It sounds good when playing. 
 
 
 
 DER UNTERMENSCH by TYPE O NEGATIVE 
 (from SLOW, DEEP AND HARD) 
 
 Tuning is normal. 
 e|- 
 b|- 
 g|- 
 D|- 
 A|- 
 E|- 
 
 
 INTRO RIFF(1) 
 1|------------------------------------------------------------ 
 2|------------------------------------------------------------ 
 3|---2--2--2--2--2--5--5--5--5-----------------5--5--5--5--5-- 
 4|------------------------------4--4--4--4--4----------------- 
 
 INTRO RIFF(2) 
 1|------------------------------------------------------------ 
 2|------------------------------------------------------------ 
 3|------------------------------------------------------------ 
 4|---4--4--4--4--4--7--7--7--7-----------------7--7--7--7--7-- 
 5|---2--2--2--2--2--5--5--5--5--6--6--6--6--6--5--5--5--5--5-- 
 6|------------------------------4--4--4--4--4----------------- 
 
 INTRO RIFF(3) 
 1|------------------------------- 
 2|------------------------------- 
 3|------------------------------- 
 4|---4---------/7------------/7-- 
 5|---2---------/5--6---------/5-- 
 6|-----------------4------------- 
 
 
 RIFF A 
 1|--------------------------------- 
 2|--------------------@------------ 
 3|--------------------@------------ 
 4|---------------------------4--5-- 
 5|--4----------6--7----------2--3-- 
 6|--2----------4--5---------------- 
 
 
 RIFF A1 
 1|-------------------------------- 
 2|-------------------------------- 
 3|-------------------------------- 
 4|---------------------X\X-------- 
 5|--4----------6--7--------------- 
 6|--2----------4--5--------------- 
 
 
 RIFF B1 
 1|---------------------- 
 2|---------------------- 
 3|---------------------- 
 4|--4--4-4-------9--9--- 
 5|--2--2-2--5-5--7--7--- 
 6|----------3-3--------- 
 
 RIFF B2 
 1|---------------------- 
 2|---------------------- 
 3|---------------------- 
 4|--4--4-4-------------- 
 5|--2--2-2--5-4--3--2--- 
 6|----------3-2--1--0--- 
 
 RIFF B3 
 1|----------------------------- 
 2|----------------------------- 
 3|----------------------------- 
 4|--4--4-4--------------------- 
 5|--2--2-2--5-4--3--2---------- 
 6|----------3-2--1--0---------- 
 | 
 1|----------------------------- 
 2|----------------------------- 
 3|--2--2-2-------------7--6--5- 
 4|----------3-2--1--0---------- 
 
 
 RIFF C 
 1|------------------------------------------------------------- 
 2|------------------------------------------------------------- 
 3|------------------------------------------------------------- 
 4|--6-6--------6-6--------------6-6--------6-6------------- 
 5|--4-4--2/5---4-4--2/5---------4-4--2/5---4-4--2/5-4-3-2-- 
 6|-------0/3--------0/3--4-5-6-------0/3--------0/3-2-1-0-- 
 
 
 RIFF D 
 1|------------------------------- 
 2|------------------------------- 
 3|--6--6-6---------2-2-2--9-9-9-- 
 4|--6--6-6-4--4-4--2-2-2--9-9-9-- 
 5|--4--4-4-4--4-4--0-0-0--7-7-7-- 
 6|---------2--2-2---------------- 
 play this above for 4 times then: 
 1|------------------------------- 
 2|------------------------------- 
 3|--9-9--8h9-9------------------- 
 4|--9-9--8h9-9-9-9-9-9-(9)------- 
 5|--7-7--6h7-7-9-9-9-9-(9)------- 
 6|-------------7-7-7-7-(7)------- 
 
 
 RIFF E 
 1|----------------------------------------- 
 2|----------------------------------------- 
 3|----------------------------------------- 
 4|------------9-------------------------4-- 
 5|--4----6----7----6-----4----6----2----2-- 
 6|--2----4---------6-----2----4----0----2-- 
 
 
 OUTRO 
 1|----------------------------------- 
 2|----------------------------------- 
 3|----------------------------------- 
 4|--4---------/7--------------------- 
 5|--2---------/5--6------------------ 
 6|----------------4------------------ 
 
 
 
 SONG STRUCTURE: 
 INTRO RIFF(1)x4 
 INTRO RIFF(2)x3 
 INTRO RIFF(3) 
 [RIFF A+RIFF A1]x2 
 [RIFF B1+RIFF B2]x2 
 RIFF B1 
 RIFF B3 
 RIFF C 
 Some drum beats 
 RIFF B1 
 RIFF B2 
 RIFF B1 
 RIFF B3 
 RIFF C 
 INTRO RIFF(1)x4 
 INTRO RIFF(2)x3 
 INTRO RIFF(3) 
 [RIFF A+RIFF A1]x2 
 RIFF Dx4 
 RIFF E 
 RIFF Dx3 
 RIFF Ex2 
 RIFF Dx2 
 Some noise(c# sound;2nd string 2nd fret) 
 INTRO RIFF(1)x4 
 INTRO RIFF(2)x4 
 INTRO RIFF(2)x3(the rythm becomes slower and slower) 
 OUTRO. 
 
 
 SPECIAL SYMBOLS: 
 @ - make some noise 
 X\X - slide up from nowhere to nowhere 
 h - hammer on 
 / - slide down 
 
 -Transcribed by Dmitry Buloichik 
 


Important: The song above is NOT stored on the Chordie server. The original song is hosted at chordiearchive.chordie.com. Chordie works as a search engine and provides on-the-fly formatting. Chordie does not index songs against artists'/composers' will. To remove this song please click here.

This song is displayed as text-only. Transposing and tuning is only available for chordpro-songs.
Rate #1 of 1 versions

Login - add to songbook

SHARE PAGE  



You need to log in to post comments