Guitar Tabs, Chords and Lyrics
Major upgrade!! After one year development the new version of Chordie is now online! Please give feedback.


Brother   Steve Vai

 


 

 


 

 
 e-----------------------------------------------------------------14--13----

 


 [-----]  

 
 b--7--6---------------------------------------------------------------------

 


 [-----]  

 
 g--------6-----------6------------------------------------------------------

 


 [-----]  

 
 d-----------6v----6-----6/9v---8--4-4p3-4/6---------------------------------

 


 [-----]  

 
 a---------------------------------------------------------------------------

 


 [-----]  

 
 e----------------------------------------------------sr12/------------------

 


 [-----]  

 
 e---------------------------------------------------------------------------

 


 [-----]  

 
 b--14-------------14--------------------------------------------------------

 


 [-----]  

 
 g------13v----13----13\16--15----11--11p10--11/13---------------------------

 


 [-----]  

 
 d---------------------------------------------------------------------------

 


 [-----]  

 
 a---------------------------------------------------------------------------

 


 [-----]  

 
 e---------------------------------------------------------------------------


Important: The song above is NOT stored on the Chordie server. The original song is hosted at chordiearchive.chordie.com. Chordie works as a search engine and provides on-the-fly formatting. Chordie does not index songs against artists'/composers' will. To remove this song please click here.

This song is displayed as text-only. Transposing and tuning is only available for chordpro-songs.
Rate #1 of 3 versions

Jango Player

Login - add to songbook

SHARE PAGE  



You need to log in to post comments