Guitar Tabs, Chords and Lyrics
Major upgrade!! After one year development the new version of Chordie is now online! Please give feedback.


I Love It Loud   KISS

 


 



 


 

 
 --------------------

 


 Transcribed by Emil Ortenmark, emil@kissasylum.com


 Standard tuning


 Comments: This is a very simple song. There's just three parts really. But


 does it ever kick ass. The video they did for this song was right on the


 money, once this song comes on it's all over but the shouting (pun intended).


 The "solo" is nothing but some unison bends and a whammy bar dive. But then


 again, that's not what this song is about. Just pound out these riffs and


 have fun.


 Key:


 / = slide up


 \ = slide down


 b = bend (whole step)


 b^ = bend (1/2 step)


 b^^ = bend (1 1/2 steps)


 pb = pre-bend


 r = release-bend


 t = tap with righthand finger


 h = hammer-on


 p = pull-off


 ~ = Vibrato


 * = Natural Harmonic




 ** = Artificial Harmonic


 x = Dead notes (no pitch)


 P.M. = Palm mute (- -> underneath indicates which notes)


 (\) = Dive w\bar


 (/) = Release w\bar


 Tp = Tap w\plectrum


 Rhythm Fig. 1


 

 
 E|--------------------------------------------------|
 B|--------------------------------------------------|
 G|--4----4-----------4------4----4-----------4------|
 D|--4-------4-----4------(4)4-------4-----4------(4)|
 A|--2----------0--------0---2----------0--------0---|
 E|--------------------------------------------------|
 Let ring - - - - - - - - - - - - - - - - - - - - >
 E|--------------------------------------------------|
 B|------------------------3-3---3-2-----------------|
 G|--4----4-----------4----0-2---2-2-----------------|
 D|--4-------4-----4-------0-0---0-2-----------------|
 A|--2----------0----------x-------0-----------------|
 E|------------------------3-------------------------|

 


 Let ring - - - - - >


 Rhythm Fig. 2


 

 
 E|--------------------------------------------------|
 B|--------------------------------------------------|
 G|--4----4-2---9----x-2---4--4-4-4-2---9------------|
 D|--4----4-2---9----x-2---4--4-4-4-2---9------------|
 A|--2----2-0---7----x-0---2--2-2-2-0---7------0-----|
 E|-------------0-----------------------0------------|
 E|--------------------------------------------------|
 B|--------------------------------------3----3------|
 G|--4----4-2---9----x-2---4-4-4-4-4-2---0----2------|
 D|--4----4-2---9----x-2---4-4-4-4-4-2---0----0------|
 A|--2----2-0---7----x-0---2-2-2-2-2-0---x-----------|
 E|-------------0------------------------3-----------|

 


 [End] [1]  

 
 E|--------------------------------------------------|
 B|--------------------------------------------------|
 G|--------------------------------------------------|
 D|--2-----------------------------------------------|
 A|--2-----------------------------------------------|
 E|--0-----------------------------------------------|

 


 [End] [2]  

 
 E|--------------------------------------------------|
 B|--------------------------------------------------|
 G|--------------------------------------------------|
 D|--2-----------------------------------------------|
 A|--2-----------------------------------------------|
 E|--0--------------3b-------------------------------|

 


 1/4-step


 Rhythm Fig. 3


 

 
 E|--------------------------------------------------|
 B|--------------------------------------------------|
 G|--2--------------7-7----------5----7--------------|
 D|--2--------------7-7----------5----7--------------|
 A|--0--------------5-5----------3----5--------------|
 E|--------------------------------------------------|

 


 Rhythm Fig. 4


 

 
 E|--------------------------------------------------|
 B|--------------------------------------------------|
 G|--2-2-------------7-7----------5----7-------------|
 D|--2-2-------------7-7----------5----7-------------|
 A|--0-0-------------5-5----------3----5-------------|
 E|--------------------------------------------------|

 


 Solo


 

 
 E|--------------------------------------------------|
 B|--7------------9-----10------------9--------------|
 G|--9b~----------11b---12b~----------11b------------|
 D|--------------------------------------------------|
 A|--------------------------------------------------|
 E|--------------------------------------------------|
 E|--------------------------------------------------|
 B|--7------------5----3-(\)-------------------------|
 G|--9b~----------7b---5b(\)-------------------------|
 D|--------------------------------------------------|
 A|--------------------------------------------------|
 E|--------------------------------------------------|
 E|--------------------------------------------------|
 B|--------------------------------------------------|
 G|--------------------------------------------------|
 D|--------------------------------------------------|
 A|--2-----------------------------------------------|
 E|--------------------------------------------------|

 


 I LOVE IT LOUD


 Paul Stanley, Vinnie Vincent


 [Intro: Drums only] 


 [Rby. Fig 1] (2x)


 Stand up, you don't have to be afraid


 Get down - love is like a hurricane


 Street boy, no I never could be tamed


 Better believe it


 Guilty 'till I'm proven innocent


 Whiplash, heavy metal accident


 Rock on, I wanna be President


 [Rby. Fig 2 w/ End 1] 


 (I love it) Loud, I wanna hear it loud


 Right between the eyes


 Loud, wanna hear it loud


 Don't want no compromise


 [Rby. Fig 1] (2x)


 Turn it up, hungry for the medicine


 Two fisted to the very end


 No more treated like aliens


 We're not gonna take it


 No lies, no more alibis


 Turn it up, it's got me hypnotized


 Rock on, I won't be tranquilized, I love it


 [Rby. Fig 2 w/ End 1] 


 (I love it) Loud, I wanna hear it loud


 Right between the eyes


 Loud, wanna hear it loud


 Don't want no compromise


 [Rby. Fig 2 w/ End 2] 


 (I love it) Loud, I wanna hear it loud


 Right between the eyes


 Loud, wanna hear it loud


 Don't want no compromise


 [Rby. Fig 3] 


 

 
 Eh-eah-hey-yeah, eh-eah-hey-yeah

 


 [Rby. Fig 4] (3x)


 

 
 Eh-eah-hey-yeah, eh-eah-hey-yeah
 Eh-eah-hey-yeah, eh-eah-hey-yeah
 Eh-eah-hey-yeah, eh-eah-hey-yeah 

 


 Turn it up!


 [Solo over Rby. Fig 1] 


 [Rby. Fig 1] 


 Headlines, jungle is the only rule


 Front page, roar of the nation cool


 Turn it up, this is my attitude


 Take it or leave it


 [Rby. Fig 2 w/ End 1] (3x)


 Loud, I wanna hear it loud


 Right between the eyes


 (I love it) Loud, wanna hear it loud


 Don't want no compromise


 (I love it) Loud, I wanna hear it loud


 Right between the eyes


 (I love it) Loud, wanna hear it loud


 Don't want no compromise


 (I love it) Loud, I wanna hear it loud


 Right between the eyes


 (I love it) Loud, wanna hear it loud


 Don't want no compromise


 [Rby. Fig 2 w/ End 2] 


 (I love it) Loud, I wanna hear it loud


 Right between the eyes


 (I love it) Loud, wanna hear it loud


 Don't want no compromise


 [Rby. Fig 3] 


 

 
 Eh-eah-hey-yeah, eh-eah-hey-yeah (oh yeah!)

 


 [Rby. Fig 4] (3x)


 

 
 Eh-eah-hey-yeah, eh-eah-hey-yeah
 Eh-eah-hey-yeah, eh-eah-hey-yeah
 Eh-eah-hey-yeah, eh-eah-hey-yeah


Important: The song above is NOT stored on the Chordie server. The original song is hosted at chordiearchive.chordie.com. Chordie works as a search engine and provides on-the-fly formatting. Chordie does not index songs against artists'/composers' will. To remove this song please click here.

This song is displayed as text-only. Transposing and tuning is only available for chordpro-songs.
Rate #1 of 1 versions

Login - add to songbook

SHARE PAGE  



You need to log in to post comments