Guitar Tabs, Chords and Lyrics
Update 25:10. 13:00. Site is back up running again. Songbooks are recovered. Woring on getting search back up..


Keep Me Comin√Ę??   KISS

 


 



 


 

 
 --------------------

 


 Transcribed by Emil Ortenmark, emil@kissasylum.com


 Standard tuning


 Comments: Cool riffs but pretty sparse rhythm work. Because the drums and


 bass take up so much room it sounds as if the guitar is playing more,


 especially at the end of Rhy. Fig 3, but that's not the case. As for the


 solo, I don't have a clue. There is a subtle use of the whammy bar I think


 and that could mean either Vinnie or Bob Kulick. My guess is as good as


 yours. (Can't remember seeing any info on who played what on this album.


 I know they had a lot of people in to play, like Robben Ford, but I don't


 know who ended up on what song.)


 Key:


 / = slide up


 \ = slide down


 b = bend (whole step)


 b^ = bend (1/2 step)


 b^^ = bend (1 1/2 steps)


 pb = pre-bend


 r = release-bend


 t = tap with righthand finger


 h = hammer-on


 p = pull-off


 ~ = Vibrato


 * = Natural Harmonic




 ** = Artificial Harmonic


 x = Dead notes (no pitch)


 P.M. = Palm mute (- -> underneath indicates which notes)


 (\) = Dive w\bar


 (/) = Release w\bar


 Tp = Tap w\plectrum


 Rhythm Fig. 1


 

 
 E|----------------------------------------------------|
 B|----------------------------------------------------|
 G|----------------------------------------------------|
 D|----------------------------------------------------|
 A|-----7---5---2p0-0-4p0-0-5p0------------------------|
 E|--0-------------------------------------------------|

 


 Rhythm Fig. 2


 

 
 E|----------------------------------------------------|
 B|----------------------------------------------------|
 G|----------------------------------------------9\7---|
 D|----------------------------------------------9\7---|
 A|-----7---5---2p0-0-4p0-0-5p0----7---5--5/7----7\5---|
 E|--0--------------------------0--------------0-------|

 


 Rhythm Fig. 3


 

 
 E|----------------------------------------------------|
 B|----------------------------------------------------|
 G|--5-------------------------------------7/9---------|
 D|--5-------------------------------------7/9---------|
 A|--3-------------------------------------5/7---------|
 E|----------------------0-0-0-0---0-0-0-0-------------|
 P.M. - - - - - - >
 E|----------------------------------------------------|
 B|----------------------------------------------------|
 G|--7------------------------------------/7-----------|
 D|--7------------------------------------/7-----------|
 A|--5------------------------------------/5-----------|
 E|----------------------0-0-0-0---0-0-0-0-------------|
 P.M. - - - - - - >
 E|----------------------------------------------------|
 B|----------------------------------------------------|
 G|--5-------------------------------------7/9---------|
 D|--5-------------------------------------7/9---------|
 A|--3-------------------------------------5/7---------|
 E|----------------------0-0-0-0---0-0-0-0-------------|
 P.M. - - - - - - >
 E|----------------------------------------------------|
 B|----------------------------------------------------|
 G|--7-------------------------------------------------|
 D|--7-------------------------------------------------|
 A|--5------------------x\-----------------------------|
 E|---------------------x\-----------------------------|

 


 Pick scrape


 Rhythm Fig. 4


 

 
 E|----------------------------------------------------|
 B|----------------------------------------------------|
 G|-----7---7---7---9----------7---7-------------------|
 D|-----7---7---7---9----------7---7-------------------|
 A|-----5---5---5---7----------5---5---2p0-0-4p0-0-5p0-|
 E|--0-----------------0-3--0--------------------------|
 < - - - - 3x - - - - >

 


 Rhythm Fig. 5


 

 
 E|----------------------------------------------------|
 B|----------------------------------------------------|
 G|-----7---7---7---9-----------7---7---7---9--2-2-----|
 D|-----7---7---7---9-----------7---7---7---9--2-2-----|
 A|-----5---5---5---7-----------5---5---5---7--0-0-----|
 E|--0-----------------0-3---0-------------------------|
 < - - - - 3x - - - - >

 


 Rhythm Fig. 6


 

 
 E|----------------------------------------------------|
 B|----------------------------------------------------|
 G|--4------------------7\6-4-6p4-2h4------------------|
 D|--4------------------7\6-4-6p4-2h4------------------|
 A|--2-------------------------------------------------|
 E|----------------------------------------------------|
 < - - - - - - - - 2x - - - - - - - >
 E|----------------------------------------------------|
 B|----------------------------------------------------|
 G|--4------------------7\6-4-6p4-2h4--7\6-4-6p4-------|
 D|--4------------------7\6-4-6p4-2h4--7\6-4-6p4-------|
 A|--2-------------------------------------------------|
 E|----------------------------------------------------|

 


 Rhythm Fig. 7


 

 
 E|----------------------------------------------------|
 B|----------------------------------------------------|
 G|--2-------------------------------------------------|
 D|--2--------------------7---5---2p0-0-4p0-0-5p0------|
 A|--0-----------------0-------------------------------|
 E|----------------------------------------------------|

 


 Rhythm Fig. 8


 

 
 E|----------------------------------------------------|
 B|----------------------------------------------------|
 G|--2------------------2(\)---------------------------|
 D|--2------------------2(\)---------------------------|
 A|--0------------------0(\)---------------------------|
 E|----------------------------------------------------|

 


 Riff 1


 

 
 E|----------------------------------------------------|
 B|----------------------------------------------------|
 G|--9(\)----------------------------------------------|
 D|--9(\)----------------------------------------------|
 A|--7(\)----------------------------------------------|
 E|----------------------------------------------------|

 


 Riff 2


 

 
 E|----------------------------------------------------|
 B|--9b^-----r9p7--------------------------------------|
 G|---------------10--9--7----9-7~---------------------|
 D|-------------------------9---------7~---------------|
 A|----------------------------------------------------|
 E|----------------------------------------------------|
 E|----------------------------------------------------|
 B|--18p17--------18p17--------18p17--------20b~-------|
 G|--------19-----------19-----------19----------------|
 D|----------------------------------------------------|
 A|----------------------------------------------------|
 E|----------------------------------------------------|

 


 | |


 | |


 | |


 

 
 E|-----------------------------------------20b~-------|
 B|----------------------------------------------------|
 G|----------------------------------------------------|
 D|----------------------------------------------------|
 A|----------------------------------------------------|
 E|----------------------------------------------------|

 


 Solo


 

 
 E|----------------------------------------------------|
 B|--14b^~---------14b^---14-14b^---14-14b^---14-14b^--|
 G|----------------------------------------------------|
 D|----------------------------------------------------|
 A|----------------------------------------------------|
 E|----------------------------------------------------|

 


 | |


 | |


 | |


 

 
 E|----------------------------------------------------|
 B|----------------------------------------------------|
 G|--14b~----------14b----14-14b----14-14b-----14-14b--|
 D|----------------------------------------------------|
 A|----------------------------------------------------|
 E|----------------------------------------------------|
 E|----------------------------------------------------|
 B|--14-14b^~------14/15(\)----------------------------|
 G|----------------------------------------------------|
 D|----------------------------------------------------|
 A|----------------------------------------------------|
 E|----------------------------------------------------|

 


 | |


 | |


 | |


 

 
 E|----------------------------------------------------|
 B|----------------------------------------------------|
 G|--14-14b~-------16(\)-------------------------------|
 D|----------------------------------------------------|
 A|----------------------------------------------------|
 E|----------------------------------------------------|
 E|--------12-------12-------------------(12)----------|
 B|--------12-------12--15p14p12-14-12----12-----------|
 G|--14b------14b----------------------14----15p14p12--|
 D|----------------------------------------------------|
 A|----------------------------------------------------|
 E|----------------------------------------------------|
 E|----------------------------------------------------|
 B|-----------------12---------------------------------|
 G|-----------14b-----14b----15p14p12-14/16-12~--------|
 D|--14-12---------------------------------------------|
 A|----------------------------------------------------|
 E|----------------------------------------------------|
 E|--19b^^-----r19--19--18--17-------------------------|
 B|----------------------------20p19p17-19-17------20--|
 G|-------------------------------------------19b~-----|
 D|----------------------------------------------------|
 A|----------------------------------------------------|
 E|----------------------------------------------------|
 E|----------------------------------------------------|
 B|-------20--------20--20----22b~---------------------|
 G|--19b~-----19b~------19b~---------------------------|
 D|----------------------------------------------------|
 A|----------------------------------------------------|
 E|----------------------------------------------------|
 Let ring - - - - - - >


Important: The song above is NOT stored on the Chordie server. The original song is hosted at chordiearchive.chordie.com. Chordie works as a search engine and provides on-the-fly formatting. Chordie does not index songs against artists'/composers' will. To remove this song please click here.

This song is displayed as text-only. Transposing and tuning is only available for chordpro-songs.
Rate #1 of 1 versions

Login - add to songbook

SHARE PAGE  




You need to log in to post comments