Guitar Tabs, Chords and Lyrics
Major upgrade!! After one year development the new version of Chordie is now online! Please give feedback.


Do You Love Me   KISS

 


 



 


 

 
 --------------------

 


 Transcribed by Emil Ortenmark, emil@kissasylum.com


 Tuned down 1/2-step


 Comments: Good way to end an album and of course this song has also done


 serious time during the last couple of tours (with that totally cool


 harmony thing in the outro). The rhythm is divided up as usual, Paul on


 the left again, but there's a little strnage thing happening here. During


 the first verse Ace just plays a chord here and there (see Rhy. Fig ), but


 during the second verse he pretty much mirrors Paul's figure and octave


 higher. But not the little pick-up chord. There Paul plays a F# (with a


 C# in the bass) while Ace plays a C#m (G# in the bass) which gives a


 dissonance of A# against G#. Very strange. But I've checked this several


 times and that's the way they play it.


 Key:


 / = slide up


 \ = slide down


 b = bend (whole step)


 b^ = bend (1/2 step)


 b^^ = bend (1 1/2 steps)


 pb = pre-bend


 r = release-bend


 t = tap with righthand finger


 h = hammer-on


 p = pull-off


 ~ = Vibrato


 * = Natural Harmonic




 ** = Artificial Harmonic


 x = Dead notes (no pitch)


 P.M. = Palm mute (- -> underneath indicates which notes)


 (\) = Dive w\bar


 (/) = Release w\bar


 Tp = Tap w\plectrum


 Rhythm Fig. 1


 

 
 Eb|---------0------------------------------------|
 Bb|--2------0------------------------------------|
 Gb|--2------1------------------------------------|
 Db|--2------2------------------------------------|
 Ab|--0------2------------------------------------|
 Eb|---------0------------------------------------|
 Eb|----------0-----------------------------------|
 Bb|--2--2----0-----------------------------------|
 Gb|--2--2----1-----------------------------------|
 Db|--2--2----2-----------------------------------|
 Ab|--0--0----2-----------------------------------|
 Eb|----------0-----------------------------------|
 Eb|----------------------------------------------|
 Bb|--2--2----3-----------------------------------|
 Gb|--2--2----2-----------------------------------|
 Db|--2--2----0-----------------------------------|
 Ab|--0--0----------------------------------------|
 Eb|----------------------------------------------|

 


 [End] [1]  

 
 Eb|----------0-----------------------------------|
 Bb|--2--2----0-----------------------------------|
 Gb|--2--2----1-----------------------------------|
 Db|--2--2----2-----------------------------4-----|
 Ab|--0--0----2-----------------------------4-----|
 Eb|----------0-----------------------------2-----|

 


 [End] [2]  

 
 Eb|----------0-----------------------------------|
 Bb|--2--2----0-----------------------------------|
 Gb|--2--2----1--------------------9/-11--11------|
 Db|--2--2----2--------------------9/-11--11------|
 Ab|--0--0----2--------------------7--9---9-------|
 Eb|----------0-----------------------------------|

 


 Rhythm Fig. 2


 

 
 Eb|----------------------------------------------|
 Bb|----------------------------------------------|
 Gb|--9------9------------------------------------|
 Db|--7------9------------------------------------|
 Ab|---------7------------------------------------|
 Eb|----------------------------------------------|
 Eb|----------------------------------------------|
 Bb|----------------------------------------------|
 Gb|--9--9----9-----------------------------------|
 Db|--7--7----9-----------------------------------|
 Ab|----------7-----------------------------------|
 Eb|----------------------------------------------|
 Eb|----------------------------------------------|
 Bb|----------------------------------------------|
 Gb|--9--9----7-----------------------------------|
 Db|--7--7----7-----------------------------------|
 Ab|----------5-----------------------------------|
 Eb|----------------------------------------------|

 


 [End] [1]  

 
 Eb|----------------------------------------------|
 Bb|----------------------------------------------|
 Gb|--9--9----9-----------------------------------|
 Db|--7--7----9------------------------------4----|
 Ab|----------7------------------------------4----|
 Eb|-----------------------------------------2----|

 


 [End] [2]  

 
 Eb|----------------------------------------------|
 Bb|----------------------------------------------|
 Gb|--9--9----9--------------------9/-11--11------|
 Db|--7--7----9--------------------9/-11--11------|
 Ab|----------7--------------------7--9---9-------|
 Eb|----------------------------------------------|

 


 Rhythm Fig. 3


 

 
 Eb|----------------------------------------------|
 Bb|--4----4----5--4--5--4------4-----------------|
 Gb|--4----4----4--4--4--4------4------3----------|
 Db|--4----4----6--4--6--4------4------4----------|
 Ab|-----------------------------------4----------|
 Eb|----------------------------------------------|
 Eb|----------------------------------------------|
 Bb|--4----4----5--4----2-------------------------|
 Gb|--4----4----4--4----2-------2-----2--2--------|
 Db|--4----4----6--4----2----2--4-----4--2--------|
 Ab|--------------------0----0--0--0--0--0--------|
 Eb|----------------------------------------------|
 Eb|----------------------------------------------|
 Bb|--4----4----5--4--5--4------4-----------------|
 Gb|--4----4----4--4--4--4------4------3----------|
 Db|--4----4----6--4--6--4------4------4----------|
 Ab|-----------------------------------4----------|
 Eb|----------------------------------------------|
 Eb|----------------------------------------------|
 Bb|--4----4----5--4--5--4------------------------|
 Gb|--4----4----4--4--4--4------------------------|
 Db|--4----4----6--4--6--4------------------------|
 Ab|----------------------------------------------|
 Eb|----------------------------------------------|

 


 Rhythm Fig. 4


 

 
 Eb|----------------------------------------------|
 Bb|----------------------------------------------|
 Gb|--4-------------------------------------------|
 Db|--4-------------------------------------------|
 Ab|--2-------------------------------------------|
 Eb|----------------------------------------------|
 Eb|----------------------------------------------|
 Bb|----------------------------------------------|
 Gb|----------------9--------11-----11--9---------|
 Db|----------------7-----7--7---7--7---7---------|
 Ab|----------------------------------------------|
 Eb|----------------------------------------------|
 Eb|----------------------------------------------|
 Bb|----------------------------------------------|
 Gb|--4-------------------------------------------|
 Db|--4-------------------------------------------|
 Ab|--2-------------------------------------------|
 Eb|----------------------------------------------|

 


 Rhythm Fig. 5


 

 
 Eb|----------------------------------------------|
 Bb|----------------------------------------------|
 Gb|--11--------13--11--13--11--------------9-----|
 Db|--9---------9---9---9---9---------------11----|
 Ab|----------------------------------------11----|
 Eb|----------------------------------------------|
 Eb|----------------------------------------------|
 Bb|----------------------------------------------|
 Gb|--11----11-----13--11---9------11-----11--9---|
 Db|--9-----9---9--9---9----7---7--7---7--7---7---|
 Ab|----------------------------------------------|
 Eb|----------------------------------------------|
 Eb|----------------------------------------------|
 Bb|----------------------------------------------|
 Gb|--11--------13--11--13--11---------------9----|
 Db|--9---------9---9---9---9----------------11---|
 Ab|-----------------------------------------11---|
 Eb|----------------------------------------------|
 Eb|----------------------------------------------|
 Bb|----------------------------------------------|
 Gb|--11--------13--11--13--11--------------------|
 Db|--9---------9---9---9---9---------------------|
 Ab|----------------------------------------------|
 Eb|----------------------------------------------|

 


 Rhythm Fig. 6a


 

 
 Eb|----------------------------------------------|
 Bb|----------------------------------------------|
 Gb|--8~-----6~-----4~------6~-----8----6---------|
 Db|----------------------------------------------|
 Ab|----------------------------------------------|
 Eb|----------------------------------------------|

 


 Rhythm Fig. 6b


 

 
 Eb|----------------------------------------------|
 Bb|----------------------------------------------|
 Gb|--8~-----6~-----4~------6~-----8--------------|
 Db|------------------------------------10--------|
 Ab|----------------------------------------------|
 Eb|----------------------------------------------|

 


 Rhythm Fig. 7a


 

 
 Eb|----------------------------------------------|
 Bb|----------------------------------------------|
 Gb|----------------------------------------------|
 Db|--9~-----8~-----6~------8~-----9\-8--8--------|
 Ab|----------------------------------------------|
 Eb|----------------------------------------------|

 


 Rhythm Fig. 7b


 

 
 Eb|----------------------------------------------|
 Bb|----------------------------------------------|
 Gb|----------------------------------------------|
 Db|--9~-----8~-----6~------8~-----9/-10--10------|
 Ab|----------------------------------------------|
 Eb|----------------------------------------------|

 


 Rhythm Fig. 8


 

 
 Eb|----------------------------------------------|
 Bb|----------------------------------------------|
 Gb|--10~-----8~------6~-----8~------10----8------|
 Db|--11~-----10~-----8~-----10~-----11----10-----|
 Ab|----------------------------------------------|
 Eb|----------------------------------------------|
 Eb|----------------------------------------------|
 Bb|----------------------------------------------|
 Gb|--10~-----8~------11--11----11--11--11--11----|
 Db|--11~-----10~-----11--11----11--11--11--11----|
 Ab|------------------9---9-----9---9---9---9-----|
 Eb|----------------------------------------------|

 


 Rhythm Fig. 9


 

 
 Eb|----------------------------------------------|
 Bb|----------------------------------------------|
 Gb|----------------------------------------------|
 Db|--11-----------------------------11-----------|
 Ab|--11-----------------------------11----11-----|
 Eb|--9------------------------------9-----8------|
 Eb|----------------------------------------------|
 Bb|----------------------------------------------|
 Gb|----------------11--11-----11--11--11--11-----|
 Db|--11------------11--11-----11--11--11--11-----|
 Ab|--11------------9---9------9---9---9---9------|
 Eb|--9-------------------------------------------|

 


 Rhythm Fig. 10


 

 
 Eb|----------------------------------------------|
 Bb|----------------------------------------------|
 Gb|--2-------------------------------------------|
 Db|--2------2------------------------------------|
 Ab|--0------2------------------------------------|
 Eb|---------0------------------------------------|
 Eb|----------------------------------------------|
 Bb|----------------------------------------------|
 Gb|--2--2----------------------------------------|
 Db|--2--2----2-----------------------------------|
 Ab|--0--0----2-----------------------------------|
 Eb|----------0-----------------------------------|
 Eb|----------------------------------------------|
 Bb|----------3-----------------------------------|
 Gb|--2--2----2-----------------------------------|
 Db|--2--2----0-----------------------------------|
 Ab|--0--0----------------------------------------|
 Eb|----------------------------------------------|
 Eb|----------------------------------------------|
 Bb|----------------------------------------------|
 Gb|--2--2----------------------------------------|
 Db|--2--2----2-----------------------------------|
 Ab|--0--0----2-----------------------------------|
 Eb|----------0-----------------------------------|

 


 Rhythm Fig. 11


 

 
 Eb|----------------------------------------------|
 Bb|----------------------------------------------|
 Gb|--9------9------------------------------------|
 Db|--7------9------------------------------------|
 Ab|---------7------------------------------------|
 Eb|----------------------------------------------|
 Eb|----------------------------------------------|
 Bb|----------------------------------------------|
 Gb|--9--9----9-----------------------------------|
 Db|--7--7----9-----------------------------------|
 Ab|----------7-----------------------------------|
 Eb|----------------------------------------------|
 Eb|----------------------------------------------|
 Bb|----------------------------------------------|
 Gb|--9--9----7-----------------------------------|
 Db|--7--7----7-----------------------------------|
 Ab|----------5-----------------------------------|
 Eb|----------------------------------------------|
 Eb|----------------------------------------------|
 Bb|----------------------------------------------|
 Gb|--9--9----9-----------------------------------|
 Db|--7--7----9-----------------------------------|
 Ab|----------7-----------------------------------|
 Eb|----------------------------------------------|

 


 Rhythm Fig. 12


 

 
 Eb|----------------------------------------------|
 Bb|----------------------------------------------|
 Gb|--2--2----------------------------------------|
 Db|--2--2----2-----------------------------------|
 Ab|--0--0----2-----------------------------------|
 Eb|----------0-----------------------------------|

 


 < - - 2x - - >


 

 
 Eb|----------------------------------------------|
 Bb|----------3-----------------------------------|
 Gb|--2--2----2-----------------------------------|
 Db|--2--2----0-----------------------------------|
 Ab|--0--0----------------------------------------|
 Eb|----------------------------------------------|
 Eb|----------------------------------------------|
 Bb|----------------------------------------------|
 Gb|--2--2----------------------------------------|
 Db|--2--2----2-----------------------------------|
 Ab|--0--0----2-----------------------------------|
 Eb|----------0-----------------------------------|

 


 Rhythm Fig. 13


 

 
 Eb|----------------------------------------------|
 Bb|----------------------------------------------|
 Gb|--9--9----9-----------------------------------|
 Db|--7--7----9-----------------------------------|
 Ab|----------7-----------------------------------|
 Eb|----------------------------------------------|

 


 < - - 2x - - >


 

 
 Eb|----------------------------------------------|
 Bb|----------------------------------------------|
 Gb|--9--9----7-----------------------------------|
 Db|--7--7----7-----------------------------------|
 Ab|----------5-----------------------------------|
 Eb|----------------------------------------------|
 Eb|----------------------------------------------|
 Bb|----------------------------------------------|
 Gb|--9--9----9-----------------------------------|
 Db|--7--7----9-----------------------------------|
 Ab|----------7-----------------------------------|
 Eb|----------------------------------------------|


Important: The song above is NOT stored on the Chordie server. The original song is hosted at chordiearchive.chordie.com. Chordie works as a search engine and provides on-the-fly formatting. Chordie does not index songs against artists'/composers' will. To remove this song please click here.

This song is displayed as text-only. Transposing and tuning is only available for chordpro-songs.
Rate #1 of 1 versions

Login - add to songbook

SHARE PAGE  




You need to log in to post comments