Guitar Tabs, Chords and Lyrics
Major upgrade!! After one year development the new version of Chordie is now online! Please give feedback.


Great Expectations   KISS

 


 



 


 

 
 --------------------

 


 Transcribed by Emil Ortenmark, emil@kissasylum.com


 Tuned down 1/2-step


 Comments: I like this song. I never have been able to figure out what he


 Actually sings in the chorus after "great expectations", but I still think


 It's cool. Too bad there isn't more guitar though. As usual I've only listed


 The chord forms of the coustic here, you can hear what the strum patterns


 Are better than I can show them in tab. There is an acoustic that comes in


 Under the last chorus but for the life of me I can't hear what the second


 Chord is: the first is and A and the third is an E, but what the hell is


 In between? I don't have a clue.


 Key:


 / = slide up


 \ = slide down


 b = bend (whole step)


 b^ = bend (1/2 step)


 b^^ = bend (1 1/2 steps)


 pb = pre-bend


 r = release-bend


 t = tap with righthand finger


 h = hammer-on


 p = pull-off


 ~ = Vibrato


 * = Natural Harmonic




 ** = Artificial Harmonic


 x = Dead notes (no pitch)


 P.M. = Palm mute (- -> underneath indicates which notes)


 (\) = Dive w\bar


 (/) = Release w\bar


 Tp = Tap w\plectrum


 Rhythm Fig. 1


 

 
 Eb|--2------------------4--------------------------|
 Bb|--2------------------6--------------------------|
 Gb|--3------------------6--------------------------|
 Db|--4------------------6--------------------------|
 Ab|--4------------------4--------------------------|
 Eb|--2---------------------------------------------|
 < - - - - - 2x - - - - - - >
 Eb|--2--------6----------6--------4----------------|
 Bb|--2--------6----------7--------4----------------|
 Gb|--3--------6----------8--------5----------------|
 Db|--4--------8----------8--------6----------------|
 Ab|--4--------8----------6--------6----------------|
 Eb|--2--------6-------------------4----------------|

 


 [End] [1]  

 
 Eb|--4----------------|--4----2--------------------|
 Bb|--6----------------|--6----4--------------------|
 Gb|--6----------------|--6----4--------------------|
 Db|--6----------------|--6----4--------------------|
 Ab|--4----------------|--4----2--------------------|
 Eb|-------------------|----------------------------|

 


 Rhythm Fig. 2


 

 
 Eb|------------------------------------------------|
 Bb|------------------------------------------------|
 Gb|------------------------------------------------|
 Db|--11----9---------------------------------------|
 Ab|--11----9---------------------------------------|
 Eb|--9-----7---------------------------------------|

 


 Rhythm Fig. 3


 

 
 Eb|--0------------------0--------------------------|
 Bb|--2------------------0--------------------------|
 Gb|--2------------------1--------------------------|
 Db|--2------------------2--------------------------|
 Ab|--0------------------2--------------------------|
 Eb|---------------------0--------------------------|
 Eb|--0------------------0--------------------------|
 Bb|--2------------------0--------------------------|
 Gb|--2------------------1--------1/-3--3-----------|
 Db|--2------------------2--------2/-4--4-----------|
 Ab|--0------------------2--------2/-4--4-----------|
 Eb|---------------------0--------------------------|
 Eb|--2------------------2--------------------------|
 Bb|--4------------------2--------------------------|
 Gb|--4------------------3--------------------------|
 Db|--4------------------4--------------------------|
 Ab|--2------------------4--------------------------|
 Eb|---------------------2--------------------------|
 Eb|--4--4--4--4--4--4--4--4----4--4----4--4--4-----|
 Bb|--6--6--6--6--6--6--6--6----4--4----4--4--4-----|
 Gb|--6--6--6--6--6--6--6--6----5--5----5--5--5-----|
 Db|--6--6--6--6--6--6--6--6----6--6----6--6--6-----|
 Ab|--4--4--4--4--4--4--4--4----6--6----6--6--6-----|
 Eb|----------------------------4--4----4--4--4-----|

 


 Rhythm Fig. 4


 

 
 Eb|------------------------------------------------|
 Bb|------------------------------------------------|
 Gb|--9------------------9--------------------------|
 Db|--7------------------9--------------------------|
 Ab|---------------------7--------------------------|
 Eb|------------------------------------------------|
 Eb|------------------------------------------------|
 Bb|------------------------------------------------|
 Gb|--9------------------9--------9/-11--11---------|
 Db|--7------------------9--------9/-11--11---------|
 Ab|---------------------7--------7/-9---9----------|
 Eb|------------------------------------------------|
 Eb|------------------------------------------------|
 Bb|------------------------------------------------|
 Gb|--11------------------11------------------------|
 Db|--9-------------------11------------------------|
 Ab|----------------------9-------------------------|
 Eb|------------------------------------------------|
 Eb|------------------------------------------------|
 Bb|------------------------------------------------|
 Gb|--13--13--13--13----13--13----13--13--13--------|
 Db|--11--11--11--11----13--13----13--13--13--------|
 Ab|--------------------11--11----11--11--11--------|
 Eb|------------------------------------------------|

 


 < - - 2x - - - >


 Rhythm Fig. 5


 

 
 Eb|------------------------------------------------|
 Bb|------------------------------------------------|
 Gb|------------------------------------------------|
 Db|------------------------------------------------|
 Ab|--0---------------------------------------------|
 Eb|-----------4---------2--------0-----------------|
 Eb|------------------------------------------------|
 Bb|------------------------------------------------|
 Gb|------------------------------------------------|
 Db|--2--------2------------------------------------|
 Ab|---------------2-------------------0---2--------|
 Eb|-------------------4---0---2---4-----------4----|

 


 Rhythm Fig. 6


 

 
 Eb|------------------------------------------------|
 Bb|------------------------------------------------|
 Gb|------------------------------------------------|
 Db|------------------------------------------------|
 Ab|--0---------------------------------------------|
 Eb|-----------4---------2--------0-----------------|
 Eb|------------------------------------------------|
 Bb|------------------------------------------------|
 Gb|------------------------------------------------|
 Db|--2--------2---------------------------0--------|
 Ab|---------------2-----------0---2---4-------2----|
 Eb|-------------------4---4------------------------|

 


 Rhythm Fig. 7


 

 
 Eb|------------------------------------------------|
 Bb|------------------------------------------------|
 Gb|------------------------------------------------|
 Db|------------------------------------------------|
 Ab|--0---------------------------------------------|
 Eb|-----------4---------2--------0-----------------|
 Eb|------------------------------------------------|
 Bb|------------------------------------------------|
 Gb|------------------------------------------------|
 Db|--2--------2------------------------------------|
 Ab|----------------2------------------2/-4--4------|
 Eb|---------------------4----0---------------------|

 


 Solo


 

 
 Eb|------------------------------------------------|
 Bb|--11~---9~----/14~-------12--11~----/14~--------|
 Gb|------------------------------------------------|
 Db|------------------------------------------------|
 Ab|------------------------------------------------|
 Eb|------------------------------------------------|
 Eb|------------------------------------------------|
 Bb|--/19~------21~-----\--14~----------------------|
 Gb|------------------------------------------------|
 Db|------------------------------------------------|
 Ab|------------------------------------------------|
 Eb|------------------------------------------------|


Important: The song above is NOT stored on the Chordie server. The original song is hosted at chordiearchive.chordie.com. Chordie works as a search engine and provides on-the-fly formatting. Chordie does not index songs against artists'/composers' will. To remove this song please click here.

This song is displayed as text-only. Transposing and tuning is only available for chordpro-songs.
Rate #1 of 4 versions

Login - add to songbook

SHARE PAGE  



You need to log in to post comments