Guitar Tabs, Chords and Lyrics
Server problems seems to be fixed. Chordie has been experiencing problems with songs disappearing. These issues now seems to be fixed, but still verifying the fix. If you find anything strange, please email admin@chordie.com.


Dirty Livin√Ę??   KISS

 


 



 


 

 
 --------------------

 


 Transcribed by Emil Ortenmark, emil@kissasylum.com


 Standard tuning


 Comments: There is a slight problem here. Two things in this song are


 pretty hard to play; the low F in Rhy. Fig 3 is a bitch to get to after


 the preceeding riff and the arpeggiation of Absus2 in Rhy. Fig 4. Now,


 the low F could be easily solved by using a capo at the first fret, that


 would land the F on the open 6th string. I don't think that's how it was


 played however. The arpeggiation and that cumberome fingering could be


 easily solved by tuning down to Eb and using open strings. But, the timbre


 of that part doesn't suggest open strings, but rather the position I've


 used here. I say just play.


 Key:


 / = slide up


 \ = slide down


 b = bend (whole step)


 b^ = bend (1/2 step)


 b^^ = bend (1 1/2 steps)


 pb = pre-bend


 r = release-bend


 t = tap with righthand finger


 h = hammer-on


 p = pull-off


 ~ = Vibrato


 * = Natural Harmonic




 ** = Artificial Harmonic


 x = Dead notes (no pitch)


 P.M. = Palm mute (- -> underneath indicates which notes)


 (\) = Dive w\bar


 (/) = Release w\bar


 Tp = Tap w\plectrum


 Rhythm Fig. 1


 

 
 E|---------------------------------------------------------|
 B|---------------------------------------------------------|
 G|--------10~---8----10p-8---------------------------------|
 D|--------10~---8----10p-8---------------------------------|
 A|---------------------------------------------------------|
 E|--8--8--------------------8--8--8--8--8--8--8--6---------|
 P.M. P.M. - - - - - - - - >

 


 Rhythm Fig. 2


 

 
 E|---------------------------------------------------------|
 B|---------------------------------------------------------|
 G|--------10~---8----10p-8------------------------8--------|
 D|--------10~---8----10p-8-----------------8------8--------|
 A|-----------------------------------------8h-10-----------|
 E|--8--8--------------------8--8--8--8--8------------------|

 


 P.M. P.M. - - - - >


 

 
 E|---------------------------------------------------------|
 B|---------------------------------------------------------|
 G|---------------------------------------------------------|
 D|--6--------------8---------------------------------------|
 A|--6--------------8---------------------------------------|
 E|--4--------------6------------------6--------------------|

 


 Rhythm Fig. 3


 

 
 E|---------------------------------------------------------|
 B|---------------------------------------------------------|
 G|--------10~---8----10p-8--10b^-10--8------8--10--8-------|
 D|--------10~---8----10p-8--10b^-10--8--10--8--10--8--10---|
 A|--------------------------------------10------------10---|
 E|--8--8---------------------------------------------------|

 


 P.M.


 

 
 E|---------------------------------------------------------|
 B|---------------------------------------------------------|
 G|-------------------------------------------------8-------|
 D|--3---------------------------------------8------8-------|
 A|------------------------------------------8h-10----------|
 E|--1------------------------------------------------------|

 


 Fade in


 Rhythm Fig. 4 (Let ring)


 

 
 E|---------------------------------------------------------|
 B|---------------------------------------------------------|
 G|--------10~---8----10p-8---------------------------------|
 D|--------10~---8----10p-8---------------------------------|
 A|---------------------------------------------------------|
 E|--8--8--------------------8--8--8--8--8--8--10-----------|

 


 P.M. P.M. - - - - - >


 

 
 E|---------------------------------------------------------|
 B|---------------------------------------------------------|
 G|--8---------8-------------------8------------------------|
 D|--8----8---------8---------8---------8-------------------|
 A|--6-------------------5----------------------------------|
 E|---------------------------------------------------------|
 E|---------------------------------------------------------|
 B|---------------------------------------------------------|
 G|--------8--------------8---------------------------------|
 D|-----8-------8--------------8----------------------------|
 A|--11--------------11-------------11----------------------|
 E|---------------------------------------------------------|
 E|---------------------------------------------------------|
 B|---------------------------------------------------------|
 G|--8---------8-------------------8------------------------|
 D|--8----8---------8---------8---------8-------------------|
 A|--6-------------------5----------------------------------|
 E|---------------------------------------------------------|

 


 [End] [1]  

 
 E|---------------------------------------------------------|
 B|---------------------------------------------------------|
 G|--------8------------------------------------------------|
 D|-----8-------8---------5--5--5--5--5--5--5--5------------|
 A|--11--------------8----5--5--5--5--5--5--5--5------------|
 E|-----------------------3--3--3--3--3--3--3--3------------|

 


 [End] [2]  

 
 E|---------------------------------------------------------|
 B|---------------------------------------------------------|
 G|--8--------8-------8-------------------------------------|
 D|-----8----------8-------5--5--5--5--5--5--5--5-----------|
 A|--------11--------------5--5--5--5--5--5--5--5-----------|
 E|------------------------3--3--3--3--3--3--3--3-----------|

 


 Rhythm Fig. 5


 

 
 E|---------------------------------------------------------|
 B|---------------------------------------------------------|
 G|--------10~---8----10p-8--------10~---8----10p-8---------|
 D|--------10~---8----10p-8--------10~---8----10p-8---------|
 A|---------------------------------------------------------|
 E|--8--8--------------------8--8---------------------------|

 


 P.M. P.M.


 Riff 1


 

 
 E|---------------------------------------------------------|
 B|--11~---------8--11------8--11--------------------8------|
 G|----------10---------10-----------------------10---------|
 D|--------------------------------8/-10~-------------------|
 A|---------------------------------------------------------|
 E|---------------------------------------------------------|
 < - - - - - - - - - - - - 2x - - - - - - - - - - - - >
 E|---------------------------------------------------------|
 B|--11~---------8--11------8--11---------------------------|
 G|----------10---------10----------------------------------|
 D|--------------------------------8/-10~-------------------|
 A|---------------------------------------------------------|
 E|---------------------------------------------------------|

 


 Riff 2a


 

 
 E|---------------------------------------------------------|
 B|---------------------------------------------------------|
 G|--8--10--10b~-------------8h10p8----8--10b--10b~---------|
 D|---------------------------------10----------------------|
 A|---------------------------------------------------------|
 E|---------------------------------------------------------|

 


 Feedback Feedback


 

 
 E|---------------------------------------------------------|
 B|---------------------------------------------------------|
 G|--10~----10b--10b-r10p8----------------------------------|
 D|------------------------10~------------------------------|
 A|---------------------------------------------------------|
 E|---------------------------------------------------------|

 


 Riff 2b


 

 
 E|---------------------------------------------------------|
 B|---------------------------------------------------------|
 G|--8--10--10b~-----------------8--10--10b~----------------|
 D|---------------------------------------------------------|
 A|---------------------------------------------------------|
 E|---------------------------------------------------------|

 


 Feedback Feedback


 

 
 E|---------------------------------------------------------|
 B|---------------------------------------------------------|
 G|--pb10--10--r10~---pb10--r10~----8~----------------------|
 D|---------------------------------------------------------|
 A|---------------------------------------------------------|
 E|---------------------------------------------------------|

 


 Hold bend


 Riff 3


 

 
 E|---------------------------------------------------------|
 B|--11b----r11p8-11b~----------11b--r11p8--11b--11--8------|
 G|-----------------------------------------------------10--|
 D|---------------------------------------------------------|
 A|---------------------------------------------------------|
 E|---------------------------------------------------------|
 E|---------------------------------------------------------|
 B|---------------------------------------------------------|
 G|--8------------------------------------------------------|
 D|----10~--------------------------------------------------|
 A|---------------------------------------------------------|
 E|---------------------------------------------------------|

 


 Riff 4


 

 
 E|------------11--10--8------------------8-----------------|
 B|--11b--r11-------------11b---11--8--11---11-8------------|
 G|----------------------------------------------11-10-8----|
 D|---------------------------------------------------------|
 A|---------------------------------------------------------|
 E|---------------------------------------------------------|
 E|---------------------------------------------------------|
 B|-------------------10b^-------\--------------------------|
 G|--10b---10b~----8----------------------------------------|
 D|---------------------------------------------------------|
 A|---------------------------------------------------------|
 E|---------------------------------------------------------|

 


 Riff 5


 

 
 E|--13b--13b--13b--13b-r13--11--13-------13b--13b--13b-----|
 B|---------------------------------------------------------|
 G|---------------------------------------------------------|
 D|---------------------------------------------------------|
 A|---------------------------------------------------------|
 E|---------------------------------------------------------|
 < - - - - - - - 2x - - - - - - >
 E|--13b-r13p11-13-13b-r13p13-------------------------------|
 B|---------------------------13~---------------------------|
 G|---------------------------------------------------------|
 D|---------------------------------------------------------|
 A|---------------------------------------------------------|
 E|---------------------------------------------------------|

 


 < - - 4x - - > Fade out


 Solo


 

 
 E|--------------------8-11b---r11-11b~-----pb11-r11~-------|
 B|---------8--10--11---------------------------------------|
 G|--8--10--------------------------------------------------|
 D|---------------------------------------------------------|
 A|---------------------------------------------------------|
 E|---------------------------------------------------------|
 E|--8h11p8----8---------8-11p8----8------------------------|
 B|---------11------8h11--------11----11b---11b~------------|
 G|---------------------------------------------------------|
 D|---------------------------------------------------------|
 A|---------------------------------------------------------|
 E|---------------------------------------------------------|
 E|---------------------11--------11--------11-------11-----|
 B|--8h11p8----8--------------------------------------------|
 G|---------10---10b--------r10------10b-------r10-----10b--|
 D|---------------------------------------------------------|
 A|---------------------------------------------------------|
 E|---------------------------------------------------------|
 Let ring - - - - - - - - - - - - - - - - >
 E|-----11---------11---------------------------------------|
 B|---------------------------------------------------------|
 G|--------r10-------10b----10-10-10-10-10-10-10-10-r10-----|
 D|---------------------------------------------------------|
 A|---------------------------------------------------------|
 E|---------------------------------------------------------|
 Let ring - - - - - - > Hold bend - - - - - - >
 E|---------------------------------------------------------|
 B|---------------------------------------------------------|
 G|--10p8-8h10p8--8-7h8p7h8p7h8p7-----10b--r10p8--10--8~----|
 D|---------------------------------------------------------|
 A|---------------------------------------------------------|
 E|---------------------------------------------------------|
 E|--8--------10-----11-----13------15-15------15-----15----|
 B|--11b~-----13b~---14b~---16b~-------18b~----18b~---------|
 G|---------------------------------------------------------|
 D|---------------------------------------------------------|
 A|---------------------------------------------------------|
 E|---------------------------------------------------------|
 E|--15------18-15h18p15----15-18b---18b-----r18------------|
 B|--18b~----------------18---------------------------------|
 G|---------------------------------------------------------|
 D|---------------------------------------------------------|
 A|---------------------------------------------------------|
 E|---------------------------------------------------------|
 E|---------------------------------------------------------|
 B|--13-----------------------------------------------------|
 G|---------------------------------------------------------|
 D|---------------------------------------------------------|
 A|---------------------------------------------------------|
 E|---------------------------------------------------------|


Important: The song above is NOT stored on the Chordie server. The original song is hosted at chordiearchive.chordie.com. Chordie works as a search engine and provides on-the-fly formatting. Chordie does not index songs against artists'/composers' will. To remove this song please click here.

This song is displayed as text-only. Transposing and tuning is only available for chordpro-songs.
Rate #1 of 1 versions

Jango Player

Login - add to songbook

SHARE PAGE  



You need to log in to post comments