Guitar Tabs, Chords and Lyrics
Server problems seems to be fixed. Chordie has been experiencing problems with songs disappearing. These issues now seems to be fixed, but still verifying the fix. If you find anything strange, please email admin@chordie.com.


The Oath   KISS

 


 



 


 

 
 --------------------

 


 Transcribed by Emil Ortenmark, emil@kissasylum.com


 Tuned down 1/2-step


 Comments: Heavy metal for days. Well, at least the riffs are metal, I'm


 not sure about Paul's vocals though. A little bit too castrato perhaps.


 Not much to this one really, just mute the riffs properly and look out


 for Riff 2. It's not readily apparent but it's there. I like the chords


 during the bridge (Rhy. Fig 8). There's no real solo here so I've just


 called the little breaks and fills for Riffs.


 Key:


 / = slide up


 \ = slide down


 b = bend (whole step)


 b^ = bend (1/2 step)


 b^^ = bend (1 1/2 steps)


 pb = pre-bend


 r = release-bend


 t = tap with righthand finger


 h = hammer-on


 p = pull-off


 ~ = Vibrato


 * = Natural Harmonic




 ** = Artificial Harmonic


 x = Dead notes (no pitch)


 P.M. = Palm mute (- -> underneath indicates which notes)


 (\) = Dive w\bar


 (/) = Release w\bar


 Tp = Tap w\plectrum


 Rhythm Fig. 1 (P.M. on open 6th)


 

 
 Eb|-------------------------------------------------------------|
 Bb|-------------------------------------------------------------|
 Gb|--9---7---9-----------------------------------------7--------|
 Db|--9---7---9-----------------------------------------7--------|
 Ab|--7---5---7-----------------------------------------5--------|
 Eb|-------------0-0-0-0-0--0-0-0--0-0-0--0-0-0-0-0-0-0----------|

 


 [End] [1]  

 
 Eb|-------------------------------------------------------------|
 Bb|-------------------------------------------------------------|
 Gb|--9---7---9--------------------------------------------------|
 Db|--9---7---9--------------------------------------------------|
 Ab|--7---5---7----------------2p0--4p0--5p0--7p0-/10--9---------|
 Eb|-------------0-0-0-0-12\-------------------------------------|

 


 [End] [2]  

 
 Eb|-------------------------------------------------------------|
 Bb|-------------------------------------------------------------|
 Gb|--9---7---9-----------------------------------/7-------------|
 Db|--9---7---9-------------------------------5---/7-------------|
 Ab|--7---5---7-------------------------------5---/5-------------|
 Eb|-------------0-0-0-0-0--0-0-0--0-0-0--0-0-3------------------|

 


 [End] [3]  

 
 Eb|-------------------------------------------------------------|
 Bb|-------------------------------------------------------------|
 Gb|--9---7---9-------------------------------9----7-------------|
 Db|--9---7---9-------------------------------9----7-------------|
 Ab|--7---5---7-------------------------------7----5-------------|
 Eb|-------------0-0-0-0-0--0-0-0--0-0-0--0-0--------------------|

 


 Rhythm Fig. 2


 

 
 Eb|-------------------3-3-3-------------------------------------|
 Bb|-------------------3-3-3----3--------------------------------|
 Gb|--5----------------0-0-0----2----5-------------7/-9--7-------|
 Db|--5----------------0-0-0----0----5-------------7/-9--7-------|
 Ab|--3------------------------------3-------------5/-7--5-------|
 Eb|-------------------3-3-3-------------------------------------|

 


 Rhythm Fig. 3 (P.M. on open 6th)


 

 
 Eb|-------------------------------------------------------------|
 Bb|-------------------------12~---------------------------------|
 Gb|-------------------------12~---------------------------------|
 Db|-------------------------12~-----------------8----9----------|
 Ab|---------------------------------------------8----9----------|
 Eb|--0--0-0-0--0-0-0--0-0-0------0--0-0-0-0-0-0-6----7----------|

 


 [End] [1]  

 
 Eb|-------------------------------------------------------------|
 Bb|-------------------------12~---------------------------------|
 Gb|-------------------------12~---------------------/7----------|
 Db|-------------------------12~-----------------5---/7----------|
 Ab|---------------------------------------------5---/5----------|
 Eb|--0--0-0-0--0-0-0--0-0-0------0--0-0-0-0-0-0-3---------------|

 


 [End] [2]  

 
 Eb|-------------------------------------------------------------|
 Bb|-------------------------12~---------------------------------|
 Gb|-------------------------12~---------------------------------|
 Db|-------------------------12~---------------------------------|
 Ab|-------------------------------------------------------------|
 Eb|--0--0-0-0--0-0-0--0-0-0------0--0-0-0-0-0-0-0-0-0-0-0-0-0-0-|

 


 Rhythm Fig. 4


 

 
 Eb|-------------------------------------------------------------|
 Bb|-------------------------------------------------------------|
 Gb|-------------------------------------------------------------|
 Db|--3--3----3--3----3--3------3--3----3----3-------------------|
 Ab|--3--3----3--3----3--3------3--3----3----3-------------------|
 Eb|--1--1----1--1----1--1------1--1----1----1-------------------|
 Eb|-------------------------------------------------------------|
 Bb|-------------------------------------------------------------|
 Gb|-------------------------------------------------------------|
 Db|--5--5----5--5----5--5------5--5----5----5-------------------|
 Ab|--5--5----5--5----5--5------5--5----5----5-------------------|
 Eb|--3--3----3--3----3--3------3--3----3----3-------------------|
 Eb|-------------------------------------------------------------|
 Bb|-------------------------------------------------------------|
 Gb|-------------------------------------------------------------|
 Db|--3--3----3--3----3--3------3--3----3----3-------------------|
 Ab|--3--3----3--3----3--3------3--3----3----3-------------------|
 Eb|--1--1----1--1----1--1------1--1----1----1-------------------|
 Eb|-------------------------------------------------------------|
 Bb|-------------------------------------------------------------|
 Gb|-------------------------------------------------------------|
 Db|--5--5----5--5----5--5------5--5----5----2-------------------|
 Ab|--5--5----5--5----5--5------5--5----5----2-------------------|
 Eb|--3--3----3--3----3--3------3--3----3----0-------------------|

 


 Rhythm Fig. 5a


 

 
 Eb|--5-5-5------------------------------------------------------|
 Bb|--5-5-5------------------------------------------------------|
 Gb|--2-2-2------------------------------------------------------|
 Db|--2-2-2------------------------3~----2~---0------------------|
 Ab|--0-0-0-----------------------------------------3~---2h-3p-2-|
 Eb|-------------------------------------------------------------|

 


 Rhythm Fig. 5b


 

 
 Eb|--5-5-5------------------------------------------------------|
 Bb|--5-5-5------------------------------------------------------|
 Gb|--2-2-2------------------------------------------------------|
 Db|--2-2-2------------------------7~----5~---3~----2~---0h-2p-0-|
 Ab|--0-0-0------------------------------------------------------|
 Eb|-------------------------------------------------------------|

 


 Rhythm Fig. 6a


 

 
 Eb|--5-5-5------------------------------------------------------|
 Bb|--5-5-5------------------------------------------------------|
 Gb|--2-2-2------------------------------------------------------|
 Db|--2-2-2------------------------3~----2~---0------------------|
 Ab|--0-0-0-----------------------------------------3~----0------|
 Eb|----------------------------------------------------------3--|

 


 Rhythm Fig. 6b


 

 
 Eb|--5-5-5------------------------------------------------------|
 Bb|--5-5-5------------------------------------------------------|
 Gb|--2-2-2----------------------------------------------2-------|
 Db|--2-2-2------------------------7~----5~---3~----2~---2-------|
 Ab|--0-0-0----------------------------------------------0-------|
 Eb|----------------------------------------------------------3--|

 


 Rhythm Fig. 7


 

 
 Eb|-------------------------------------------------------------|
 Bb|-------------------------------------------------------------|
 Gb|--5----------------------------------------------------------|
 Db|--5----------------------------------------------------------|
 Ab|--3----------------------------------------------------------|
 Eb|-------------------------------------------------------------|

 


 Rhythm Fig. 8


 

 
 Eb|-------------------------------------------------------------|
 Bb|--5-------------6-------------7-------------8----------------|
 Gb|--5-------------5-------------5-------------5----------------|
 Db|--5-------------6-------------7-------------8----------------|
 Ab|-------------------------------------------------------------|
 Eb|-------------------------------------------------------------|
 Eb|-------------------------------------------------------------|
 Bb|--6-------------7-------------8-------------9----------------|
 Gb|--6-------------6-------------6-------------6----------------|
 Db|--6-------------7-------------8-------------9----------------|
 Ab|-------------------------------------------------------------|
 Eb|-------------------------------------------------------------|
 Eb|--4----------------------------------------------------------|
 Bb|--4---------------------------9------------------------------|
 Gb|--5---------------------------9---------------------/7-------|
 Db|--6---------------------------9-----------------5---/7-------|
 Ab|--6---------------------------7-----------x\----5---/5-------|
 Eb|--4---------------------------0-----------x\----3------------|

 


 Rhythm Fig. 9


 

 
 Eb|-------------------------------------------------------------|
 Bb|--9---7---9--------------------------------------------------|
 Gb|--9---7---9--------------------------------------------------|
 Db|--9---7---9--------------------------------------------------|
 Ab|--7---5---7--------------------------------------------------|
 Eb|-------------------------------------------------------------|

 


 Riff 1


 

 
 Eb|-------------------------------------------------------------|
 Bb|--15b---r15---15b~-------------------------------------------|
 Gb|-----------------------14b----14b---14p12-14p12~-------------|
 Db|-------------------------------------------------------------|
 Ab|-------------------------------------------------------------|
 Eb|-------------------------------------------------------------|

 


 | |


 | |


 | |


 

 
 Eb|-------------------------------------------------------------|
 Bb|--19b^--r19---19b^~------------------------------------------|
 Gb|-------------------------------------------------------------|
 Db|-------------------------------------------------------------|
 Ab|-------------------------------------------------------------|
 Eb|-------------------------------------------------------------|

 


 Riff 2


 

 
 Eb|-------------------------------------------------------------|
 Bb|-------------------------------------------------------------|
 Gb|-------------------------------------------------------------|
 Db|--5h-7----5~-------------------------------------------------|
 Ab|-------------------------------------------------------------|
 Eb|-------------------------------------------------------------|

 


 Riff 3


 

 
 Eb|--10p9-------------------------10p9-10-/12~-----13~----------|
 Bb|-------10----------------------------------------------------|
 Gb|----------9~---10~-------------------------------------------|
 Db|-------------------------------------------------------------|
 Ab|-------------------------------------------------------------|
 Eb|-------------------------------------------------------------|
 Eb|--15b~------15b~---------10p9--------------------------------|
 Bb|------------------------------10-----------------------------|
 Gb|---------------------------------9~-------10~----9~----7~----|
 Db|-------------------------------------------------------------|
 Ab|-------------------------------------------------------------|
 Eb|-------------------------------------------------------------|
 Eb|-------------------------------------------------------------|
 Bb|------------------------------------15b---r15--15b~----------|
 Gb|--5~---------------------------------------------------------|
 Db|--------7----5-----------------------------------------------|
 Ab|------------------7~-----------------------------------------|
 Eb|-------------------------------------------------------------|


Important: The song above is NOT stored on the Chordie server. The original song is hosted at chordiearchive.chordie.com. Chordie works as a search engine and provides on-the-fly formatting. Chordie does not index songs against artists'/composers' will. To remove this song please click here.

This song is displayed as text-only. Transposing and tuning is only available for chordpro-songs.
Rate #1 of 1 versions

Jango Player

Login - add to songbook

SHARE PAGE  



You need to log in to post comments