Guitar Tabs, Chords and Lyrics
Server problems seems to be fixed. Chordie has been experiencing problems with songs disappearing. These issues now seems to be fixed, but still verifying the fix. If you find anything strange, please email admin@chordie.com.


All the Way   KISS

 


 



 


 

 
 --------------------

 


 Transcribed by Emil Ortenmark, emil@kissasylum.com


 Tuned down 1/2-step


 Comments: One of my favourite songs from this album, gotta love that good


 ol' rock 'n' roll. Cool riff that's, once again, divided between the guitars


 (I believe Paul's on the left as usual). There are a lot of endings here


 which might make things a little hard to read at first but it's easy once


 you get the hang of it. This is basically a two-riff song (with each guitar


 have two riffs) so once you learn the basic structure, this is a breeze.


 Great solo by Ace, he throws in a lot of would-be signature moves and even


 a few melodic touches. When he ends the solo by changing scales to follow


 the rhythm guitars he sets up the outro chorus beautifully.


 Key:


 / = slide up


 \ = slide down


 b = bend (whole step)


 b^ = bend (1/2 step)


 b^^ = bend (1 1/2 steps)


 pb = pre-bend


 r = release-bend


 t = tap with righthand finger


 h = hammer-on


 p = pull-off


 ~ = Vibrato


 * = Natural Harmonic




 ** = Artificial Harmonic


 x = Dead notes (no pitch)


 P.M. = Palm mute (- -> underneath indicates which notes)


 (\) = Dive w\bar


 (/) = Release w\bar


 Tp = Tap w\plectrum


 Rhythm Fig. 1


 

 
 Eb|---------------------------------------------------|
 Bb|---------------------------------------------------|
 Gb|---------------------------------------------------|
 Db|----------------------------5----------------------|
 Ab|--0--------5-----------------------3---------------|
 Eb|----------------------2--3-------------------------|

 


 [End] [1]  

 
 Eb|---------------------------------------------------|
 Bb|---------------------------------------------------|
 Gb|---------------------------------------------------|
 Db|---------------------------------------------------|
 Ab|--0--------5------------------3--------------------|
 Eb|---------------------------------------------------|

 


 [End] [2]  

 
 Eb|---------------------------------------------------|
 Bb|---------------------------------------------------|
 Gb|----4--4----4--4----7----7----7--7-----------------|
 Db|----4--4----4--4----7----7----7--7-----------------|
 Ab|----2--2----2--2----5----5----5--5--0--3-----------|
 Eb|---------------------------------------------------|

 


 [End] [3]  

 
 Eb|---------------------------------------------------|
 Bb|---------------------------------------------------|
 Gb|----4--4----4--4----7----7----7--7--7--------------|
 Db|----4--4----4--4----7----7----7--7--7--------------|
 Ab|----2--2----2--2----5----5----5--5--5--------------|
 Eb|---------------------------------------5/-7--------|

 


 Rhythm Fig. 2


 

 
 Eb|---------------------------------------------------|
 Bb|-----------3---------------------------------------|
 Gb|--2--------2---------------------------------------|
 Db|--2--------4----------------5----------------------|
 Ab|--0--------0-----------------------3---------------|
 Eb|----------------------2--3-------------------------|

 


 [End] [1]  

 
 Eb|---------------------------------------------------|
 Bb|-----------3---------------------------------------|
 Gb|--2--------2------------------5--------------------|
 Db|--2--------4------------------5--------------------|
 Ab|--0--------0------------------3--------------------|
 Eb|---------------------------------------------------|

 


 [End] [2]  

 
 Eb|---------------------------------------------------|
 Bb|---------------------------------------------------|
 Gb|----4--4----4--4----7----7----7--7-----5-----------|
 Db|----4--4----4--4----7----7----7--7-----5-----------|
 Ab|----2--2----2--2----5----5----5--5--0--3-----------|
 Eb|---------------------------------------------------|

 


 [End] [3]  

 
 Eb|---------------------------------------------------|
 Bb|------------------------------------------9--------|
 Gb|----4--4----4--4----7----7----7--7--7-----9--------|
 Db|----4--4----4--4----7----7----7--7--7-----9--------|
 Ab|----2--2----2--2----5----5----5--5--5--0--7--------|
 Eb|---------------------------------------------------|

 


 Rhythm Fig. 3


 

 
 Eb|-------0-------------------------------------------|
 Bb|-------0-------------------------------------------|
 Gb|---------------------------------------------------|
 Db|------------------2-------4-----2-----4p-2---------|
 Ab|-----------------------0-----0-----0---------------|
 Eb|--0------------------------------------------------|

 


 Let ring P.M. P.M. P.M.


 

 
 Eb|-------0-------------------------------------------|
 Bb|-------0-------------------------------------------|
 Gb|---------------------------------------------------|
 Db|------------------2-------4-----2-----4p-2---------|
 Ab|-----------------------0-----0-----0---------------|
 Eb|--0------------------------------------------------|

 


 Let ring P.M. P.M. P.M.


 

 
 Eb|-------0-------------------------------------------|
 Bb|-------0----------12----12----12----12-------------|
 Gb|------------------14b---14b---14b---14b-14p12------|
 Db|----------------------------------------------14\--|
 Ab|---------------------------------------------------|
 Eb|--0------------------------------------------------|

 


 Let ring


 [End] [1]  

 
 Eb|---------------------------------------------------|
 Bb|---------------------------------------------------|
 Gb|----4--4----4--4----7----7----7--7-----------------|
 Db|----4--4----4--4----7----7----7--7-----------------|
 Ab|----2--2----2--2----5----5----5--5--0--3-----------|
 Eb|---------------------------------------------------|

 


 [End] [2]  

 
 Eb|---------------------------------------------------|
 Bb|---------------------------------------------------|
 Gb|----4--4----4--4----7----7----7--7--7--------------|
 Db|----4--4----4--4----7----7----7--7--7--------------|
 Ab|----2--2----2--2----5----5----5--5--5--------------|
 Eb|---------------------------------------5/-7--------|

 


 Rhythm Fig. 4


 

 
 Eb|---------------------------------------------------|
 Bb|--9-----------9--------------------------------9-9-|
 Gb|--9-----------9--------------------------------9-9-|
 Db|--9----11-----9--------------------------------9-9-|
 Ab|--7----7---7--7------7-------9-----7-----------7-7-|
 Eb|---------------------5----5--5--5--5---------------|
 Eb|---------------------------------------------------|
 Bb|--9-----------9-----14----14--15--14--15--14---9-9-|
 Gb|--9-----------9-----14----14--14--14--14--14---9-9-|
 Db|--9----11-----9-----14----14--16--14--16--14---9-9-|
 Ab|--7----7---7--7--------------------------------7-7-|
 Eb|---------------------------------------------------|
 Eb|---------------------------------------------------|
 Bb|--9-----------9------9--------------9--------------|
 Gb|--9-----------9------9--------------9----9---------|
 Db|--9----11-----9------9-------11-----9----9---------|
 Ab|--7----7---7--7------7----7--7---7--7----7---------|
 Eb|---------------------------------------------------|

 


 [End] [1]  

 
 Eb|---------------------------------------------------|
 Bb|---------------------------------------------------|
 Gb|----4--4----4--4----7----7----7--7-----5-----------|
 Db|----4--4----4--4----7----7----7--7-----5-----------|
 Ab|----2--2----2--2----5----5----5--5--0--3-----------|
 Eb|---------------------------------------------------|

 


 [End] [2]  

 
 Eb|---------------------------------------------------|
 Bb|------------------------------------------9--------|
 Gb|----4--4----4--4----7----7----7--7--7-----9--------|
 Db|----4--4----4--4----7----7----7--7--7-----9--------|
 Ab|----2--2----2--2----5----5----5--5--5--0--7--------|
 Eb|---------------------------------------------------|

 


 Riff 1


 

 
 Eb|---------------------------------------------------|
 Bb|---------------------------------------------------|
 Gb|------------------------------5--------------------|
 Db|------------------------------5--------------------|
 Ab|------------------------------3--------------------|
 Eb|---------------------------------------------------|

 


 Solo


 

 
 Eb|--------------------------------17~---------17~---------------------|
 Bb|--20b~----------20b~------------------------------------------------|
 Gb|--------------------------------------------------------------------|
 Db|--------------------------------------------------------------------|
 Ab|----------------------------------------------------17\-------------|
 Eb|----------------------------------------------------17\-------------|
 Eb|------------------------------20b------20b---r20-17h20p17---17------|
 Bb|---------------------------------------------------------20---------|
 Gb|------17--x-17--x-17------17----------------------------------------|
 Db|------17--x-17--x-17--19--------------------------------------------|
 Ab|-/19----------------------------------------------------------------|
 Eb|--------------------------------------------------------------------|
 Eb|----------------------------20--------------------------------------|
 Bb|--20--20--20p17----17-----------------------------------------------|
 Gb|----------------19----19b-------r19---17h19p17----17-19b-r19p17-----|
 Db|-----------------------------------------------19---------------19--|
 Ab|--------------------------------------------------------------------|
 Eb|--------------------------------------------------------------------|

 


 Hold bend/let ring


 

 
 Eb|--------------------------------------------------------------------|
 Bb|----12h13p12--------------------------------------------------------|
 Gb|-------------14-12--11h12p11------------7h8p7-5---------------------|
 Db|-----------------------------14-12--------------7--7h8p7-5----------|
 Ab|-----------------------------------------------------------7--------|
 Eb|--------------------------------------------------------------------|
 Eb|--------------------------------------------------------------------|
 Bb|--5--5-----5--8--5----5--5---5h8p5---5--5--5----5h8p5---------------|
 Gb|--7b----7-------------7b---7-------7----7b----7---------------------|
 Db|--------------------------------------------------------------------|
 Ab|--------------------------------------------------------------------|
 Eb|--------------------------------------------------------------------|
 < - - - 3x - - - > < - - 2x - - >
 Eb|--------------------------------------------------------------------|
 Bb|--------------------------------------------------------------------|
 Gb|--7/9-9b^^--r9--9b^^--r9--9b^^--r9--9b^^----------r9----------------|
 Db|--------------------------------------------------------------------|
 Ab|--------------------------------------------------------------------|
 Eb|--------------------------------------------------------------------|
 Eb|-----------------------------------------------------------7--------|
 Bb|-----------------------------------------------------(7)-7---10p7---|
 Gb|------7p5----5-------5----------5-----------5--5~-----9b------------|
 Db|----------7-----7p5-----x-7p5------x-7p5----------------------------|
 Ab|------------------------------7----------7--------------------------|
 Eb|--------------------------------------------------------------------|
 < - - - 2x - - - >
 Eb|--------10----------10----------10----------------------------------|
 Bb|-----10----13p10-------13p10-------13p10-10-10-10-------------------|
 Gb|--12b------------12b---------12b---------12b---12b------------------|
 Db|--------------------------------------------------------------------|
 Ab|--------------------------------------------------------------------|
 Eb|--------------------------------------------------------------------|


Important: The song above is NOT stored on the Chordie server. The original song is hosted at chordiearchive.chordie.com. Chordie works as a search engine and provides on-the-fly formatting. Chordie does not index songs against artists'/composers' will. To remove this song please click here.

This song is displayed as text-only. Transposing and tuning is only available for chordpro-songs.
Rate #1 of 2 versions

Jango Player

Login - add to songbook

SHARE PAGE  



You need to log in to post comments