Guitar Tabs, Chords and Lyrics
Major upgrade!! After one year development the new version of Chordie is now online! Please give feedback.


Mr. Speed   KISS

 


 



 


 

 
 --------------------

 


 Transcribed by Emil Ortenmark, emil@kissasylum.com


 Tuned down 1/2-step


 Comments: Probably my favourite track on this album. The main riff is


 deceptively simple. The trick is to finger it right and then keep it


 that way. In Rhy. Fig 1 you should play the double-stop with your first


 finger, use your third finger for the ascending slide and put your second


 finger on the B-string. The trick now, is to keep that fingering, third


 finger on 13th fret G-string and second finger on 12th fret B-string, and


 shift the position down two frets. It shouldn¥t be a slide really but


 will get that feel if it¥s done right. To get the sound that¥s on this


 track it is imperative that you let the B-string ring (second finger


 firmly planted) as you shift position. The second finger will follow


 the third and end up on the 10th fret, still ringing out, creating a


 new fingering: third finger 11th fret G-string and second finger 10th


 fret B-string. DO NOT pick the B-string again, it should just ring


 sympathetically so to speak. Once you play the 9th fret with your


 first finger take the pressure off of your second finger. Once you


 get the hang of it, it is easy; trying to explain it however, is not.


 Key:


 / = slide up


 \ = slide down


 b = bend (whole step)


 b^ = bend (1/2 step)


 b^^ = bend (1 1/2 steps)


 pb = pre-bend


 r = release-bend


 t = tap with righthand finger


 h = hammer-on


 p = pull-off


 ~ = Vibrato


 * = Natural Harmonic




 ** = Artificial Harmonic


 x = Dead notes (no pitch)


 P.M. = Palm mute (- -> underneath indicates which notes)


 (\) = Dive w\bar


 (/) = Release w\bar


 Tp = Tap w\plectrum


 Rhythm Fig. 1


 

 
 Eb|---------------------------------------------------|
 Bb|----------------12-----------------------10--------|
 Gb|--9----9--11/13-----11--9---7----7--9/11-----9--7--|
 Db|--9----9--------------------7----7-----------------|
 Ab|---------------------------------------------------|
 Eb|---------------------------------------------------|
 Eb|---------------------------------------------------|
 Bb|---------------------------------------------------|
 Gb|--2----2--4--2--4b-r4--2--4----4--6--4--6b-r6--4---|
 Db|--2----2--4--2--4b-r4--2--4----4--6--4--6b-r6--4---|
 Ab|---------------------------------------------------|
 Eb|---------------------------------------------------|

 


 Rhythm Fig. 2


 

 
 Eb|---------------------------------------------------|
 Bb|---------------------------------------------------|
 Gb|--9----9--------9~---------9--9------9~---11b-r11--|
 Db|--9----9--11----9~---11----9--9--11--9~---11b-r11--|
 Ab|----------11--x------11--x-------11----------------|
 Eb|---------------------------------------------------|

 


 Rhythm Fig. 3


 

 
 Eb|---------------------------------------------------|
 Bb|------------------------------------7--------------|
 Gb|--9----9---------9~-----4----4--6/8----6--4--------|
 Db|--9----9--11-----9~-----4----4---------------------|
 Ab|----------11--x------------------------------------|
 Eb|---------------------------------------------------|
 Eb|---------------------------------------------------|
 Bb|---------------------------------------------------|
 Gb|--9----9--------9~---------9--9------9~---11b-r11--|
 Db|--9----9--11----9~---11----9--9--11--9~---11b-r11--|
 Ab|----------11--x------11-x--------11----------------|
 Eb|---------------------------------------------------|
 Eb|---------------------------------------------------|
 Bb|------------------------------------7--------------|
 Gb|--9----9---------9~-----4----4--6/8----6--4--------|
 Db|--9----9--11-----9~-----4----4---------------------|
 Ab|----------11--x------------------------------------|
 Eb|---------------------------------------------------|
 Eb|---------------------------------------------------|
 Bb|---------------------------------------------------|
 Gb|--2----2--------2~---------2--2-----2----2---------|
 Db|--2----2--4-----2~---4-----2--2--4--2----2---------|
 Ab|----------4--x-------4--x--------4-----------------|
 Eb|---------------------------------------------------|
 Eb|---------------------------------------------------|
 Bb|----------------12-----------------------7---------|
 Gb|--9----9--11/13-----11--9----4----4--6/8----6--4---|
 Db|--9----9---------------------4----4----------------|
 Ab|---------------------------------------------------|
 Eb|---------------------------------------------------|
 Eb|---------------------------------------------------|
 Bb|---------------------------------------------------|
 Gb|--4/-6--6---------4-----2--------------------------|
 Db|--4/-6--6---------4-----2--------------------------|
 Ab|-----------x--4/6----6--0--------------------------|
 Eb|---------------------------------------------------|
 Eb|---------------------------------------------------|
 Bb|----------------12-----------------------7---------|
 Gb|--9----9--11/13-----11--9----4----4--6/8----6--4---|
 Db|--9----9---------------------4----4----------------|
 Ab|---------------------------------------------------|
 Eb|---------------------------------------------------|
 Eb|---------------------------------------------------|
 Bb|---------------------------------------------------|
 Gb|--2----2--------2~---------2--2-----2----2---------|
 Db|--2----2--4-----2~---4-----2--2--4--2----2---------|
 Ab|----------4--x-------4--x--------4-----------------|
 Eb|---------------------------------------------------|

 


 Rhythm Fig. 4


 

 
 Eb|---------------------------------------------------|
 Bb|---------------------------------------------------|
 Gb|--4h6---6---------4-----2-------------2--2h4/6-----|
 Db|--4h6---6---------4-----2-------------2------------|
 Ab|-----------x--4/6----6--0---------2h4--------------|
 Eb|---------------------------------------------------|
 Eb|---------------------------------------------------|
 Bb|---------------------------------------------------|
 Gb|--6----6--------4-----6------------------4---------|
 Db|--6----6--------4-----6-------------x----4---------|
 Ab|------------4/6----6--4-------------x----2---------|
 Eb|---------------------------------------------------|
 Eb|---------------------------------------------------|
 Bb|---------------------------------------------------|
 Gb|--6----6--------4-----2---------------2--2h4/6-----|
 Db|--6----6--------4-----2---------------2------------|
 Ab|--4---------4/6----6--0-----------2h4--------------|
 Eb|---------------------------------------------------|
 Eb|---------------------------------------------------|
 Bb|--5----5-------------------------------------------|
 Gb|--6----6-------2--2--4-----------------------------|
 Db|--6----6-------2--2--4-----------------------------|
 Ab|--4----4----x--0--0--2-----------------------------|
 Eb|---------------------------------------------------|

 


 Rhythm Fig. 5


 

 
 Eb|---------------------------------------------------|
 Bb|---------------------------------------------------|
 Gb|--9----9---------9~-----7----7--------7~-----------|
 Db|--9----9--11-----9~-----7----7--9-----7~-----------|
 Ab|----------11--x-----------------9--x---------------|
 Eb|---------------------------------------------------|
 Eb|---------------------------------------------------|
 Bb|---------------------------------------------------|
 Gb|--2----2--------2~-----4----4--------4~------------|
 Db|--2----2--4-----2~-----4----4--6-----4~------------|
 Ab|----------4--x-----------------6--x----------------|
 Eb|---------------------------------------------------|

 


 Solo


 

 
 Eb|---------------------------------------------------|
 Bb|---------------------------------------12b---r12---|
 Gb|--pb11---r11------9b--r9-----------9---------------|
 Db|--------------------------11p9-11------------------|
 Ab|---------------------------------------------------|
 Eb|---------------------------------------------------|

 


 < - - 4x - - >


 

 
 Eb|----------------------9--9--9------9----------9----|
 Bb|--9--12~---------9----9--9--9------9-----9----9----|
 Gb|-----------------11b--------11b----------11b-------|
 Db|---------------------------------------------------|
 Ab|---------------------------------------------------|
 Eb|---------------------------------------------------|
 < - - - - 2x - - - - >
 Eb|-------9---9\7-------------------------------------|
 Bb|--9----9---9\7--9----------------------------------|
 Gb|--11b-----------9--9----9-11b--r11p9--11~----------|
 Db|-------------------9h11----------------------------|
 Ab|---------------------------------------------------|
 Eb|---------------------------------------------------|


Important: The song above is NOT stored on the Chordie server. The original song is hosted at chordiearchive.chordie.com. Chordie works as a search engine and provides on-the-fly formatting. Chordie does not index songs against artists'/composers' will. To remove this song please click here.

This song is displayed as text-only. Transposing and tuning is only available for chordpro-songs.
Rate #1 of 1 versions

Jango Player

Login - add to songbook

SHARE PAGE  




You need to log in to post comments