Guitar Tabs, Chords and Lyrics
Server problems seems to be fixed. Chordie has been experiencing problems with songs disappearing. These issues now seems to be fixed, but still verifying the fix. If you find anything strange, please email admin@chordie.com.


Message of Our Love  The Association


 


 

Subject: ./a/association/message_of_our_love.crd [corrected]
"Message Of Our Love"
(Curt Boettcher - Tandyn Almer)
Intro:
B/E/A [x02442]
(Message of our love, they heed the message of our love, they heed...)
Verse 1:
[B/E/A]Wind escorts the[Emaj9] day aside
[B/E/A]Clouds of sheep's wool [G#m7]lionize the [C#9]moon
For[F#maj9] soon the moment [F#6]that we [G#m9]meet[C#9]
Phantom [F#maj9]trees that whisper [F#6]down the s[G#m9]treet[C#9]
[A#m7]Relay our m[D#m7]essage of [D#9]love
Night, what mysteries will it bring
Who can tell when Spring becomes of age
One page of letters bound foretells
Of the sorrow that your kiss dispels
And holds our message of love
Instrumental break:
Koto arr. for guitar:
[C/Bb] v v v v v v v v [Fmaj7] v v v v [Dm7] v v v v
 
 ---------|---------|---------|---------
 ---------|---------|-1-------|---------
 ---------|-0--2--3-|----2--0-|----0--2-
 -0--2--3-|---------|---------|-3-------
 ---------|---------|---------|---------
 ---------|---------|---------|---------

[Gm]v v v v [C]v v v v [Fmaj7] v v v v [Dm7] v v v v
 
 ---------|---------|---------|---------
 ---------|---------|---------|---------
 -3--0----|-------0-|-2-------|---------
 -------3-|-2--3----|----3--2-|-0--2--3-
 ---------|---------|---------|---------
 ---------|---------|---------|---------

[C/Bb] v v v v v v v v [Fmaj7] v v v v [Dm7] v v v v
 
 ---------|---------|---------|---------
 ---------|---------|-1-------|---------
 ---------|-0--2--3-|----2--0-|----0--2-
 -0--2--3-|---------|---------|-3-------
 ---------|---------|---------|---------
 ---------|---------|---------|---------

Gm A7 D F [N.C.]
v v v v v v v v v v v v v v v v v
 
 ---------|---------|---------|---------|---
 ---------|---------|---------|---------|---
 -3--0----|-------0-|-2-------|---------|---
 -------3-|-2--3----|---------|---------|---
 ---------|---------|---------|---------|---
 ---------|---------|---------|---------|---

Verse 3:
C#/F#/B* F#maj9
Fires at horizon's end
[C#/F#/B]Warm the soft breath[A#m7] of this pledge of [D#9]ours
Bright [G#maj9]stars that linger[G#6] in their [A#m9]flight[D#9]
Who will[G#maj9] know the plans we s[G#6]hare ton[A#m9]ight[D#9]
[Cm7]Reflect our m[Fm7]essage of l[F9]ove
* no, I don't know how to play it on one guitar either
Coda [repeat to fade]:
([B/E/A]Message of our love, they heed the message of our love, they heed...)
They heed the [Emaj9]message
-- another ace 60's tab from Andrew Rogers
From rogers@hi.com Tue Dec 12 05:58:22 1995
Received: from post-office.nevada.edu (root@post-office.nevada.edu [131.216.1.11]) by mailhost.tcs.tulane.edu (8.6.12/8.5) with ESMTP id XAA08408; Mon, 11 Dec 1995 23:58:20 -0600
Received: from loki.hi.com (loki.Hi.COM [140.243.30.55]) by post-office.nevada.edu (8.6.12/8.6.4) with SMTP id VAA14336 for <guitar@nevada.edu>; Mon, 11 Dec 1995 21:57:29 -0800
Received: from star.Hi.COM by loki.hi.com (4.1/SMI-4.1.hi-2)
id AA06351; Tue, 12 Dec 95 01:02:20 EST
From: rogers@hi.com (Andrew Rogers)
Received: by star.Hi.COM (1.38.193.4/Spike-2.0)
id AA00710; Tue, 12 Dec 1995 00:58:15 -0500
Date: Tue, 12 Dec 1995 00:58:15 -0500
Message-Id: <9512120558.AA00710@star.Hi.COM>
To: guitar@nevada.edu
Subject: ./a/association/message_of_our_love.crd
Status: O
"Message Of Our Love"
(Curt Boettcher - Tandyn Almer)
Intro:
B/E/A [x02441]
(Message of our love, they heed the message of our love, they heed...)
Verse 1:
[B/E/A]Wind escorts the[Emaj9] day aside
[B/E/A]Clouds of sheep's wool [G#m7]lionize the [C#9]moon
For[F#maj9] soon the moment [F#6]that we [G#m9]meet[C#9]
Phantom [F#maj9]trees that whisper [F#6]down the s[G#m9]treet[C#9]
[A#m7]Relay our m[D#m7]essage of [D#9]love
Night, what mysteries will it bring
Who can tell when Spring becomes of age
One page of letters bound foretells
Of the sorrow that your kiss dispels
And holds our message of love
Instrumental break:
Koto arr. for guitar:
[C/Bb] v v v v v v v v [Fmaj7] v v v v [Dm7] v v v v
 
 ---------|---------|---------|---------
 ---------|---------|-1-------|---------
 ---------|-0--2--3-|----2--0-|----0--2-
 -0--2--3-|---------|---------|-3-------
 ---------|---------|---------|---------
 ---------|---------|---------|---------

[Gm]v v v v [C]v v v v [Fmaj7] v v v v [Dm7] v v v v
 
 ---------|---------|---------|---------
 ---------|---------|---------|---------
 -3--0----|-------0-|-2-------|---------
 -------3-|-2--3----|----3--2-|-0--2--3-
 ---------|---------|---------|---------
 ---------|---------|---------|---------

[C/Bb] v v v v v v v v [Fmaj7] v v v v [Dm7] v v v v
 
 ---------|---------|---------|---------
 ---------|---------|-1-------|---------
 ---------|-0--2--3-|----2--0-|----0--2-
 -0--2--3-|---------|---------|-3-------
 ---------|---------|---------|---------
 ---------|---------|---------|---------

Gm A7 D F [N.C.]
v v v v v v v v v v v v v v v v v
 
 ---------|---------|---------|---------|---
 ---------|---------|---------|---------|---
 -3--0----|-------0-|-2-------|---------|---
 -------3-|-2--3----|---------|---------|---
 ---------|---------|---------|---------|---
 ---------|---------|---------|---------|---

Verse 3:
C#/F#/B* F#maj9
Fires at horizon's end
[C#/F#/B]Warm the soft breath[A#m7] of this pledge of [D#9]ours
Bright [G#maj9]stars that linger[G#6] in their [A#m9]flight[D#9]
Who will[G#maj9] know the plans we s[G#6]hare ton[A#m9]ight[D#9]
[Cm7]Reflect our m[Fm7]essage of l[F9]ove
* no, I don't know how to play it on one guitar either
Coda [repeat to fade]:
([B/E/A]Message of our love, they heed the message of our love, they heed...)
They heed the [Emaj9]message
-- another ace 60's tab from Andrew Rogers

Important: The song above is NOT stored on the Chordie server. The original song is hosted at chordiearchive.chordie.com. Chordie works as a search engine and provides on-the-fly formatting. Chordie does not index songs against artists'/composers' will. To remove this song please click here.

Text color:
Chord color:
Chord grids: 
Font size:    
Page size: 

A#m7 A#m9 C C#9 Cm7 D#9 D#m7 Dm7 Emaj9 F#6 F#maj9 F9 Fm7 Fmaj7 G#6 G#m7 G#m9 G#maj9 Gm
Rate #1 of 8 versions

Login - add to songbook

SHARE PAGE  




You need to log in to post comments