Guitar Tabs, Chords and Lyrics
Server problems seems to be fixed. Chordie has been experiencing problems with songs disappearing. These issues now seems to be fixed, but still verifying the fix. If you find anything strange, please email admin@chordie.com.


Taxco Steps   Leo Kottke

 
 
 
 Xref: undergrad.math.uwaterloo.ca rec.music.makers.guitar.acoustic:3589 rec.music.makers.guitar.tablature:15672 alt.guitar.tab:22658
 
 
 
 
 
 
 
 
 Status: OR
 
 Every time I sit down and say to myself "I should start to lift other
 artists" I end up getting into the groove of another Kottke tune. This
 time it was because I received his video _Home and Away_ and just
 had to see what it's like trying to learn a song given a video of the
 artist playing it. It certainly helped me notice voicings and
 positionings!
 
 Anyhow, here is the result of my procrastination this Sunday. Hope
 someone enjoys it.
 
 Dean
 P.S. As usual, linefeeds inserted to print nicely at 66 lines/page.
 P.P.S. I highly recommend _Home and Away_. Excellent video.
 
 [July 16, 1994: Tablature edited out since subsequent version is more
 accurate. -djg]
 
 
 
 Xref: undergrad.math.uwaterloo.ca rec.music.makers.guitar.acoustic:5796 rec.music.makers.guitar.tablature:21026 alt.guitar.tab:27398
 
 
 
 
 
 
 
 
 Status: OR
 
 I'm avoiding housework. As a consequence you all get an updated
 version of "Taxco Steps" by Leo Kottke. (And depending on how much
 more procrastination I accomplish, you may also get updates to
 "Airproofing" and "I Yell at Traffic" :)
 
 Enjoy!
 Dean
 
 "Taxco Steps" by Leo Kottke.
 Transcribed by Dean Gaudet.
 
 
 Some assembly required. This is a rough outline of what Leo plays.
 The majority of the piece is here, except the solo part C is a bit
 rough. On _Regards_ there's an electric guitar filling in the solo.
 Live, Leo does his own unique thing (which I haven't been able to
 reproduce, let alone notate. This is the sort of rhythmic section
 that gives a pice the Kottke signature.).
 
 This piece is loaded with syncopation and ghost notes. I chose to
 notate none of this. My timings are just guidelines, listen to
 the recording to get it as exact as you want. In fact, to get the
 strumming patterns right you'll have to listen to the recording. I'm
 just not too keen on timing out the 16ths and syncopation.
 
 As with many Kottke songs, it is based on a few ideas which he uses over
 and over again in different ways so as not to bore the listener. The
 whole song is based on an A B7 E chord progression (time to look at
 how many ways you can play those three chords :).
 
 Steel 6-string, standard tuning, no capo.
 
 Part A:
 
 |-------------------0-----|-------------------------|-------------------0-----|
 |-2-----0---0-------------|-2-----0---0-------------|--------2---0------------|
 |-2-----2---2-0h1-1-------|-2-----2---2-0h1---------|--------2---2-0h1-1------|
 |-2-----1---1----2------2-|-2-----1---1-------------|----2---2---1----2-----2-|
 |-0--0--2-2-2---------2---|-0--0--2-2-2-----2/7-7-7-|--0-------2----------2---|
 |-------------0-----------|-------------0-----0-----|------0-------0----------|
 1 . 2 . 3 . 4 . 1 . 2 . 3 . 4 . 1 . 2 . 3 . 4 .
 
 ending 1. ending 2.
 |--------------------------|-------------------------|
 |-2-----0---0--------------|-2-----0---0-------------|
 |-2-----2---2-0h1-x--0h1---|-2-----2---2-0h1---x-----|
 |-2-----1---1-2---2--------|-2-----1---1-2-----x-----|
 |-0--0--2-2-2--------------|-0--0--2-2-2-------------|
 |-------------0---x--0-----|-------------0-----x-----|
 1 . 2 . 3 . 4 . 1 . 2 . 3 . 4 .
 
 Part B:
 
 |-------------------------------|----------------------------------|
 |-------------------------------|----------------------------------|
 |---------------------2-------2-|--------1-----------2---2---2---2-|
 |-------2---------2-------1-----|----2-------2---2-----2---\---1---|
 |-----2-------------4-------2---|------2-------2---0---------------|
 |-3/4-------4h5-5-------2-------|--0-----------------------2-------|
 1 . 2 . 3 . 4 . 1 . 2 . 3 . 4 .
 
 |-------------------------------|----------------------------------|
 |-------------------------------|----------------------------------|
 |---------------------2-------2-|--------1-----------2---2---4-----|
 |-------2---------2-------1-----|----2-------2---2-----2---------4-|
 |-----2-------------4-------2---|------2-------2---0-----------2---|
 |-3/4-------4h5-5-------2-------|--0-----------------------2-------|
 1 . 2 . 3 . 4 . 1 . 2 . 3 . 4 .
 
 |----------------------------------||--------0---------------0----------||
 |----------------------------------||----------------------------0------||
 |--------1-----------2---2---------||*---1-------1---1---2-----------2-*||
 |------2-----2---2-----2-----2---2-||*-----2-------2-------2-------1---*||
 |----2---------2---0-----------2---||----------2-------0-------2--------||
 |--0-----------------------4-------||--0--------------------------------||
 1 . 2 . 3 . 4 . 1 . 2 . 3 . 4 .
 
 ||------------------5----------||--------------------------|
 ||--------5---------5-4--------||--4---------------------/-|
 ||*-------4-----6-----4-------*||--4--vigorous strumming-/-|
 ||*---6-----------7---4-------*||--4---------------------/-|
 ||------7-----0---------6---6--||--6---------------------/-|
 ||--0---------------------7----||--7---------------------/-|
 1 . 2 . 3 . 4 . 1 . 2 . 3 . 4 .
 
 |-------------------------|-------------------------|-------------------------|
 |/9-----------------------|-2-----------------------|-------------------------|
 |/9-----------------------|-2-----------------------|-2-----------------------|
 |/9----strum strum--------|-2--strum strum strum----|-1---strum strum-strum---|
 |/11----------------------|-4-----------------------|-2-----------------------|
 |/12----------------------|-5-----------------------|-2-----------------------|
 1 . 2 . 3 . 4 . 1 . 2 . 3 . 4 . 1 . 2 . 3 . 4 .
 
 Repeat Part A go to ending 2
 Repeat Part B
 Repeat Part A go to ending 2
 
 Part C
 
 [In reality he plays this using 12th position versions of open A and open E.
 I prefer to play it here. Note that when this section is repeated he uses
 open position A and E.]
 
 ad lib
 |-9-----------------------|-9-----------------------|-9-----------------------|
 |-10----9-----9-----9-----|-10----9-----9-----9-----|-10----9-----9-----9-----|
 |-9-----9-----9-----9-----|-9-----9-----9-----9-----|-9-----9-----9-----9-----|
 |-------9--9-----9--------|-------9--9-----9--------|-------9--9-----9--------|
 |-------------------------|-0-----------------------|-0-----------------------|
 |----------------------0--|----0-----------------0--|----0-----------------0--|
 1 . 2 . 3 . 4 . 1 . 2 . 3 . 4 . 1 . 2 . 3 . 4 .
 
 be funky
 |-9------------------3-3--|-5-----5-----5-----5-----|-5-----5-----------------|
 |-10----9-----9--2-2-2-2--|-5-----5-----5-----5-----|-5-----5-----2-----2-----|
 |-9-----9-----9--2-2-2-2--|-5-----5-----6-----6-----|-5-----5-----2-----2-----|
 |-------9--9-----2-2-2-2--|-4-----4-----7-----7-----|-4-----4-----2-----2-----|
 |-0--------------0-0-0-0--|-5-----5-----7-----7-----|-5-----5-----0-----0-----|
 |----0--------------------|-------------5-----5-----|-------------------------|
 1 . 2 . 3 . 4 . 1 . 2 . 3 . 4 . 1 . 2 . 3 . 4 .
 
 let ring
 |-0-----0-----0-----0-----|-x-----x-----4-----------|
 |-0-----0-----2-----2-----|-0-----0-----5-----------|
 |-1-----1-----2-----2-----|-2-----2-----4-----------|
 |-2-----2-----2-----2-----|-1-----1-----6-----------|
 |-2-----2-----0-----0-----|-2-----2-----7-----------|
 |-0-----0-----------------|-------------------------|
 1 . 2 . 3 . 4 . 1 . 2 . 3 . 4 .
 
 Ending 1.
 
 |-x-----------x-----------|-x-----------x-----------|-x-----------------------|
 |-4----------/9-----------|-4----------/9-----------|-2-----------------------|
 |-4----------/9-----------|-4----------/9-----------|-2-----------------------|
 |-4----------/9-----------|-4----------/9-----------|-2-----------------------|
 |-6----------/11----------|-6----------/11----------|-4-----------------------|
 |-7----------/12----------|-7----------/12----------|-5-----------------------|
 1 . 2 . 3 . 4 . 1 . 2 . 3 . 4 . 1 . 2 . 3 . 4 .
 
 |-x-----------------------|
 |-0-----------------------|
 |-2-----------------------|
 |-1-----------------------|
 |-2-----------------------|
 |-2-----------------------|
 1 . 2 . 3 . 4 .
 
 Repeat Part C without ending 1.
 
 Variation on Part B:
 
 |-------------------------------|----------------------------------|
 |-------------------------------|----------------------------------|
 |---------------------5-------5-|--------4-----------5---5---5---5-|
 |-------5---------5-------4-----|----5-------5---5-----5---\---4---|
 |-----5-------------7-------5---|------5-------5---3---------------|
 |-6/7-------7h8-8-------5-------|--3-----------------------5-------|
 1 . 2 . 3 . 4 . 1 . 2 . 3 . 4 .
 
 |-------------------------------|----------------------------------|
 |-------------------------------|----------------------------------|
 |---------------------5-------5-|--------4-----------5---5---7-----|
 |-------5---------5-------4-----|----5-------5---5-----5---------7-|
 |-----5-------------7-------5---|------5-------5---3-----------5---|
 |-6/7-------7h8-8-------5-------|--3-----------------------5-------|
 1 . 2 . 3 . 4 . 1 . 2 . 3 . 4 .
 
 |----------------------------------||--------3---------------3----------||
 |----------------------------------||----------------------------3------||
 |--------4-----------5---5---------||*---4-------4---4---5-----------5-*||
 |----5-------5---5-----5-----5---5-||*-----5-------5-------5-------4---*||
 |------5-------5---3-----------5---||----------5-------3-------5--------||
 |--3-----------------------7-------||--3--------------------------------||
 1 . 2 . 3 . 4 . 1 . 2 . 3 . 4 .
 
 ||--------0---------------0----------||
 ||----------------------------0------||
 ||*---1-------1---1---2-----------2-*||
 ||*-----2-------2-------2-------1---*||
 ||----------2-------0-------2--------||
 ||--0--------------------------------||
 1 . 2 . 3 . 4 .
 
 Repeat Part B
 
 Ending:
 
 |-------------------------|-7-----------------------|-12----------------------|
 |-4-----------------------|-7-----------------------|-9-----------------------|
 |-4-----------------------|-8-----------------------|-9-----------------------|
 |-4-----------------------|-7-----------------------|-9-----------------------|
 |-2-----------------------|-9-----------------------|-11----------------------|
 |-2-----------------------|-7-----------------------|-0-----------------------|
 1 . 2 . 3 . 4 . 1 . 2 . 3 . 4 . 1 . 2 . 3 . 4 .
 
 [In _Home..._ he continues with this:]
 
 |-------5-----9-----12----|-12----------------0-----|
 |-2-----5-----10----10----|-9-----------------0-----|
 |-2-----6-----9-----9-----|-9-----------------1-----|
 |-2-----7-----11----11----|-9-----------------2-----|
 |-0-----------------------|-11----------------2-----|
 |-------------------------|-------------------0-----|
 1 . 2 . 3 . 4 . 1 . 2 . 3 . 4 .
 
 Received: from grolsch-2.cs.ubc.ca by raven.math.ubc.ca (911016.SGI/1.14)
 id AA19524; Sun, 6 Aug 95 23:01:54 -0700
 Received: from gold.interlog.com (gold.interlog.com [198.53.145.2]) by grolsch.cs.ubc.ca (8.6.10/8.6.9) with ESMTP id XAA16127 for <dgaudet@cs.ubc.ca>; Sun, 6 Aug 1995 23:01:52 -0700
 Received: from bahead.interlog.com (bahead.interlog.com [199.212.153.38]) by gold.interlog.com (8.6.10/8.6.10) with SMTP id CAA24274 for <dgaudet@cs.ubc.ca>; Mon, 7 Aug 1995 02:01:42 -0400
 Message-Id: <199508070601.CAA24274@gold.interlog.com>
 
 X-Mailer: Windows Eudora Version 1.4.3
 Mime-Version: 1.0
 Content-Type: multipart/mixed; boundary="=====================_807798587==_"
 
 To: dgaudet@cs.ubc.ca
 
 
 X-Attachments: D:\TAB\TAXCO_ST.TAB;
 Status: RO
 
 --=====================_807798587==_
 Content-Type: text/plain; charset="us-ascii"
 
 Dean,
 
 Attached is a revised version of your transcription to Taxco Steps. After
 studying the Home and Away video for a while, I think it's pretty close.
 
 I've also nailed down Leo's version of Airproofing from Home and Away and
 eventually may get around to getting it transcribed...
 
 Let me now what you think...(someone really needs to develop a decent tablature
 program for the net, it's hell doing it this way!).
 
 B.
 
 --=====================_807798587==_
 Content-Type: application/mac-binhex40; name="TAXCO_ST.TAB"
 Content-Disposition: attachment; filename="TAXCO_ST.TAB"
 (This file must be converted with BinHex 4.0)
 :$&4"@%02Ae08,P4"3J"849K8G(4iG!!!!!!XK`!!!!$0'#*8BAKMEb"6G'9`Fb)
 JBRNJ6'9[)%Y[G(4VC3e2FQPRD@jKE#"8FQ&ZFf0bDA"dD@pZ)'*j)%4PB@iJ4f&
 eC'9d$9*PGQPcC@3JBRNJ3R*eBf8J5'9KC!d03Q&cC@3JEfiJGQ9bFfP[EL"QFQp
 Y)#*)EfeP)'&ZC#""Gf&j)Li0$90dC@9X)$BYFh4bD@jR,#"cG'&ZC'&bC#"dG@j
 TEQFX)'j[)'0KF'mZ$3dp26dp26dp26dp26dp26dp26dp26dp26dp26dp26dp26d
 p26dp26dp26dp26dp26dp26dp26dp26dp26dp26dp26dp26dp26dp26dp$94SDA-
 JDA-JF(*PG(4j)'eeBfJJG'KP)(0KE@8JBA-J4'9KELGc)'pbD@GTEQ&X)(4bB@j
 cBh*TF(4TEfiX)'9iBf9`G!edD'&d)%NRGQ8JE@pND@CTC@3J8'&bG#"#)'&ZC#"
 KC'4PC#"dEb"3BA*d)%-Z)#""CR4PFL"QFQ&YC5eLH5eQFQ&YC5!0B@jKE(PcDA-
 JEfBJ6'9[*h-JF'aKH@PZCb"[EL"dD'8JGQPNC@mX)%NJG'KTEQXJ55GY)'0XEh0
 P)#K[FL"KFb!0Bfa[Ff8JBA-J55GY)'G[D@jR)(4[)'GPG#NZ)#!0$8j[G'9c1Jd
 0-5iJ)%PZ)&"KFR3J3L`JH@pe)(0SEh9XC#"LC5"KBQaP)(4[)'KPBA)JG'KbC@8
 JGQpTBf9c)#KLBA0c,#"YD@3JB@jN)'KTCfJT,Jd0-LiJ)%4eC5"dEb"dD'8JB@e
 [G@jd)'pQ)(0jEQ0[F'&dD@pZ)'&ZC#"YGA4TEQFJD@iJ6'9[*h-JF'aKH@PZCb`
 J55"QEh9ZC#"TG!dJ)#!JC'PQCQPMG@ad)(4[)(4bB@jcBh*TBQ8JG'KP)(4TE@P
 ZCbiJ)&4SDA-JDA-JE@pbC5"[CL"K)'GeD@4P,L!J9'KP)&JRFb!0)#!J)'PZ)(4
 SC5"dFQ&ZFf0bDA"dD@pZ)'&bC5"YGA4PFbiJ)&4[)'GPG#"TG#"bD@GSG#`JE'P
 cG'9Z)(4[)(4SC5"dG@jP)!dJ)#!JEh)JBQ9dG'9b)(PPG#"hBA4MD#"SD@dJF'a
 KH5"TG#"[EL"dD'8JGQPNC@mX)'PQ)(P[G5"MB@iJCQPZC#"K)'0[F(NZ)#!0)#!
 J)%9cF'9MD@&XE(NJCQpb)&"KFR3J3b`JGfKPFQ8J6'9[)'KKFb"dD'&d)(0`C@0
 TB@`JFQKjG'KYD@-JCh*[EhCP,JdJ)#!J$6)Z)#"*EL"3BA*d)%-X)#*88b)JE@9
 KER-JG'KeE@)JFh4bG@dZ)#"-C@mJFh4bG@ec)(4SCA0P)'0SEh*NFb"hDA4S)'K
 TFb!J$5!J)#"bD@GSG#eSB@jN)(4SG@eL,L!J$5!J)#!0-biJ)%&XE#"dD'8J)RC
 TCfpbEh9c)(0dFR9YE@PZCb)J+'aTFh4PEL"dEb"dD'8JFQ9MEh*ND@jR$5!J)#"
 dEb"RCA3JG'KP)(*SHA4SE5`JDA3RFb"VD@jN)'pQ)'CXB@ePEQ0[,@aTDf8T)%a
 PEb"NEf9c)(GTG'JJD'Pc)'PZC'9i)!dJ)#!JCQPZCf9b)'&ZC#"dD(9YBL"SC@a
 N)'a[Eh0PE(NJG'pRCA4SCA)Z$3dd,L!J5@iJ8'&bG#"$,#"-C@mJCQPZCf9bFb"
 dD'8J46F[0#"MD'pbC#"hDA4S)'KTFb"XC@Cd,@KKEQ3JG'KeE@)JEhCPFJdJ)#!
 JG'KP)'CbCA4LEf&bC#"KG#"dD'8JCQPQG'JYCR*PG#"[EL"dD'8J45"KEQ3J35"
 cG(*TEQGc,#"SDA-JD@jNCAJJCQPZCf9b)!dJ)#!JBQ&bFQ9N)'&d)(4SC5"QEh9
 bG'JYCR*PG#"[EL"dD'8J4#a(,%)JB@jN)'KTCfJJ45"cG(*TEQGc,#"KEQ3JD'P
 c)(*TEQFJ$5!J)#"QD@jRCA)JBQ&bFQ9N)'&d)(4SC5"QD@CdD#eQFQ9d)'pZ)(4
 SC5"#)'&ZC#"SD@GS)%8JFh4bD@jRFbi0)#!J)#!005iJ)%PZ)&"KFR3J3b`JG'K
 P)#K@+5"YC@&ZFb"fD@*bBA4[,L!J6'9[)'&NC(-JB5"XDA4dE'8JGQPLFQ&dEb"
 dEb"dD'9cC5!0)#!J)'0SEh*NFbi0$8*bG@0P$6dp26dp26dp26dp26dp26dp26d
 p26dp26dp26dp26dp26dp26dp26dp26dp26dp26dp26dp26dp26dp26dp26dp26d
 p26dp26dp26d0$9"KFR3J36S0$5!J35!J)#!J3MFJ)#!J)#"&)#!J)#!J)#!J)#"
 ")#!J)#"#0b!J)#"&)#!J)#!J)#!J)#!J)#"")#!J)#"#0b!J)#"&$A`Y,5dY,5d
 Y,5dY,5dY,5dY,5dY-#dY,5dYI#dY,5dY,5dY,5dY,5dY,5dY,5dY,5dY,5em,5d
 Y,5dY,5dY,5dY,5dY,5dY,6!Y,5dY,A`0I#db,5dY,5d`,5dY,5J`+5dY,5dY,5d
 Y,5em,6)Y,5dY,6!Y,5dY+$!T,5dY,5dY,5dY,A`Y,5dY,5db,5dY-#dY+$!T,5d
 Y,5dY,5dYI!em,6)Y,5dY,6)Y-LdY,6"S-5da,5dY,5dY,A`Y-LdY,5dY-Ldb,5d
 Y-'Ja,5dY,5dY,5dYI#dY,5dY,6)Y,5db,5dY-'Ja,6%Y,5dY,5em$A`Y-LdY,5d
 Y,5da,5dY,5dY-LdY,5dY,6)YI#db,5dY,5dY,6%Y,5dY,5db,5dY,5dY,5em,5d
 Y-LdY-LdY,6%Y,5dY,5db,5dY,5db,A`0I#d`,5d`,5dY,5dY,5dY,5dY,5dY,6)
 Y,5em,6!Y,6!Y,5dY,5dY,5dY,5db,cFY0QJh,A`Y,6!Y,5dY,5dY,5dY,5dY,5d
 Y,5db,5dYI!em,5dY,5dY,6)Y,5db,5dY-#dY,5dY,5dY,A`Y,5dY,5dY-LdY,6)
 Y,5d`,5dY-#dY,5dYI#dY,5dY-#dY-LdY,5dY,5d`,5dY,5dY,5em$5!J-5!J,L!
 J-L!J,L!J-b!J,L!J0#!J,L!J)#!a)#!Z)#!b)#!Z)#!c)#!Z)#!d)#!S9LNJ)#!
 a)#!Z)#!b)#!Z)#!c)#!Z)#!d)#!Z$3dJC@jND@jR)$%Z)#!J)#!J)#!J)#!J)#!
 J)#!JC@jND@jR)$)Z$5!J35!J)#!J3MFJ)#!J45!J)#!J)#!J)#!J)#!J35!J)#!
 J3MFJ)#!J43em,5dY,5dY,5dY,5dY,5dY,5dY,5dY,5dY,5em,5dY,5dY,5dY,5d
 Y,5dY,5dY,5dY,5dY,A`0I#db,5dY,5d`,5dY,5J`+5dY,5dY,5dY,5dYI#db,5d
 Y,5d`,5dY,5dY,5dY,@K[E'3Y,5em$A`Y-LdY,5dY-Ldb,5dY-'Ja,5dY,6"S-5d
 Y,A`Y-LdY,5dY-Ldb,5dY-'Ja,5dS-5NY,5dYI!em,6)Y,5dY,5dY-5dY,6)Y,5d
 b,5db,5dY,5em,6)Y,5dY,5dY-5dY,6)Y,5dY+$)T,5dY,A`0I#d`,5d`,5dY,5d
 Y,5dY,5dY,5dY,5dY,5dYI#d`,5d`,5dY,5dY,5dY,5dY,5dY,5dY,5em$A`Y,5d
 Y,5dY-LdY,6)Y,5d`,5dY,5dY-#dY,A`Y,5dY,5dY-LdY,6)Y-#dY,5dS-#NY,5d
 YI!dJ)$%J)#iJ)$)J)#iJ)$-J)#!Z)#!d)#!Z)#!J)$%J)#iJ)$)J)#iJ)$-J)#i
 J)$3J)#i0$9"KFR3J3MS0$5!J45!J)#!J)#!J)#"")#!J)#!J)#!J)%)h)#!J)#!
 J)#"&)#!J)#!J)#!J)%%J)#!J)#!J)#!J)#!J3MF0I#dY,5dY,5dY,5dY,5dY,5d
 Y,5dY,5dY,5dY,5dY,5em,5dY,5dY,5dY,5dY,5dY,5dY,5dY,5dY,5dY,5dY,5d
 Y,A`0I#dY,5dY,5dY,5dY,5dY,5dY,5dY,5dY,5dY,5dY,5em,5dY,5dY,5dY,5d
 Y,5dY,5dY,5dY,5dY,5dY,5dY,5dY,A`0I#dY,5dY,5dd,5dY,5dY,5dY-LdY,5d
 Y,5dY,5dY-Lem,5dY,5dY,5da,5dY,5dY,5dY,5dY,5dY-LdY,5dY,5db,A`0I#d
 Y,5dY-LdY,5dY,5dY,5dY,5dY,5dY,5da,5dY,5em,5dY,6)Y,5dY,5dY-LdY,6)
 Y,5db,5dY,5dY,6%Y,5dY,A`0I#dY,5dY,5dY,5dY,5dY,63Y,5dY,5dY,5dY,6)
 Y,5em,5dY,5dY-LdY,5dY,5db,5dY-#dY,6!Y,5dY,5dY-LdY,A`0I#dc,c3Y,5d
 Y,5dY0'Je,5dY,5dY,5dY-LdY,5dY,5em,5d`,5dY,5dY,5dY,5dY,5dY,5dY,5d
 Y,5db,5dY,5dY,A`0)#!a)#!J,L!J)$)J)#iJ)$-J)#!Z)#!J0#!J)#iJ)#!J)#!
 a)#!J,L!J)$)J)#!Z)#!J-b!J)#iJ)#!d)#!J,JdJ)!dJ)%8J)#!J)#!J)#"")#!
 J)#!J)#!J)%)h)#!J)#!J)#!J45!J)#!J)#!J)#"")#!J)#!J)#!J)#!J3MF0I#d
 Y,5dY,5dY,5dY,5dY,5dY,5dY,5dY,5dY,5dY,5em,5dY,5dY,5dY,5dY,5dY,5d
 Y,5dY,5dY,5dY,5dY,5dY,A`0I#dY,5dY,5dY,5dY,5dY,5dY,5dY,5dY,5dY,5d
 Y,5em,5dY,5dY,5dY,5dY,5dY,5dY,5dY,5dY,5dY,5dY,5dY,A`0I#dY,5dY,5d
 d,5dY,5dY,5dY-LdY,5dY,5dY,5dY-Lem,5dY,5dY,5da,5dY,5dY,5dY,5dY,5d
 Y-LdY,63Y,5dY,A`0I#dY,5dY-LdY,5dY,5dY,5dY,5dY,5dY,5da,5dY,5em,5d
 Y,6)Y,5dY,5dY-LdY,6)Y,5db,5dY,5dY,5dY,5dd,A`0I#dY,5dY,5dY,5dY,5d
 Y,63Y,5dY,5dY,5dY,6)Y,5em,5dY,5dY-LdY,5dY,5db,5dY-#dY,6!Y,5dY,5d
 Y-LdY,A`0I#dc,c3Y,5dY,5dY0'Je,5dY,5dY,5dY-LdY,5dY,5em,5d`,5dY,5d
 Y,5dY,5dY,5dY,5dY,5dY,5db,5dY,5dY,A`0)#!a)#!J,L!J)$)J)#iJ)$-J)#!
 Z)#!J0#!J)#iJ)#!J)#!a)#!J,L!J)$)J)#!Z)#!J-b!J)#iJ)#!d)#!J,Jd0)#"
 &)#!J)#!J)#!J)%%J)#!J)#!J)#!J)#"#0b!J)#!J)#!J)#"&)#!J)#!J)#!J)#"
 ")#!J)#!J)#!J)#"#0`em,5dY,5dY,5dY,5dY,5dY,5dY,5dY,5dY,5dY,5dY,5d
 Y,Aam,5dY,5dY,5d`,5dY,5dY,5dY-#dY,5dY,5dY,5dY,5dY,Aam$A`Y,5dY,5d
 Y,5dY,5dY,5dY,5dY,5dY,5dY,5dY,5dY,5dYI(`Y,5dY,5dY,6!Y,5dY,5dY,5d
 `,5dY-#dY,5dY,5dY,5dYI(`0I#dY,5dY,5dY-5dY,5dY,5dY,5dY,5dY,6)Y,5d
 Y,5dY,5emI#SY,5dY,5dY,5dY,5dY,5dY,5dY,5db,5dY,5dY,5dY,5TmI!em,5d
 Y,6)Y,5dY,5dY-LdY,6)Y,5db,5dY,5dY,6)Y,5db,Aam+LdY,6)Y,5dY,5dY,6)
 Y-LdY,5dY,5dY,5dY,6%Y,5da+Ram$A`Y,5dY,5db,5dY,5dY,6)Y,5d`,5dY-#d
 Y,5dY,5db,5dYI(`Y,5dY,5db,5dY-#dY,5dY,5dY,5dY,5dY,5dY,5db,5dYI(`
 0I#dY-#dY,5dY,5dY,5dY,5dY,5dY,5dY,5dY0#dY,5dY,5emI#dY-#dY,5dY,5d
 Y,5dY,5dY,5dY,5dY,5dY-LdY,5dY,5emI!dJ)#!a)#!J,L!J)$)J)#!Z)#!J-b!
 J)#iJ)#!d)#!J,L!J)#!J)#!a)#!J,L!J)$)J)#!Z)#!J-b!J)#iJ)#!d)#!J,Jd
 0)#!J45!J)#!J)#!J)%%J)#!J)#!J)%)J)#!J)#!J)#!J)%)0I(`Y,5dY,5dY,5d
 Y,5dY,5dY,5de,5dY,5dY,5dY,Aam,5dY,5dY,5dY,5dY,5dY,5dY,5dY,5dY,5e
 m$Aam,5dY,5dY,5de,5dY,5dY,5dY05dd,5dY,5dY,5emI#dY0#dY,5dY,5dY,5d
 Y,5dY,5dY,5dY,5mYI!emI#SY,5dY,5dY0#dY,5dY0LdY,5dY0#dY,5dY,5dUI(`
 Y,63Y,ACTCfpbEh9c,A0dFR9YE@PZCbd[,A`0I(`U,5dY0LdY,5dY,5dY,5dY0bd
 Y,63Y,5dY,5dY+Ram,5dd,5dY,5dY,5dY,5dY,5dY,5dY,5dY,bem$Aam,5dY,5d
 Y0bdY,5dY-#dY,5dY,5dY,6BY,5df,5emI#dY0LdY,5dY,5dY,5dY,5dY,5dY,5d
 Y,5mYI!emI#dY-#dY,5dY,5dY,5dY,5dY,5dY,5dY,6FY,5dYI(`Y,6FY,5dY,5d
 Y,5dY,5dY,5dY,5dY,5d[,A`0)#!J)$%J)#iJ)$)J)#iJ)$-J)#iJ)$3J)#!Z)#!
 J)#!J)#!a)#!Z)#!b)#!Z)#!c)#!Z)#!d)#!Z$5!J$5!J45!J)#!J)#!J)#!J)#!
 J)#!J)#!J)#!J)#"")#!J)#!J)#!J)#!J)#!J)#!J)#!J)#!J)%)h$A`Y,5dY,5d
 Y,5dY,5dY,5dY,5dY,5dY,5dYI#dY,5dY,5dY,5dY,5dY,5dY,5dY,5dY,5em,5d
 Y,5dY,5dY,5dY,5dY,5dY,5dY,5dY,A`0I#mj,5dY,5dY,5dY,5dY,5dY,5dY,5d
 Y,5em,6)Y,5dY,5dY,5dY,5dY,5dY,5dY,5dY,A`Y,5dY,5dY,5dY,5dY,5dY,5d
 Y,5dY,5dYI!em,cNY,5dY,5dY,5dY,5dY,5dY,5dY,5dY,A`Y-LdY,5dY,5dY,5d
 Y,5dY,5dY,5dY,5dYI#db,5dY,5dY,5dY,5dY,5dY,5dY,5dY,5em$A`[15dY,5e
 cG(*eE5"cG(*eE5dY,5dY,5dYI#db,5ecG(*eE5"cG(*eE5"cG(*eE5dY,5em,6%
 Y,5ecG(*eE5"cG(*eE5ecG(*eE5dY,A`0I#ma-5dY,5dY,5dY,5dY,5dY,5dY,5d
 Y,5em,63Y,5dY,5dY,5dY,5dY,5dY,5dY,5dY,A`Y-LdY,5dY,5dY,5dY,5dY,5d
 Y,5dY,5dYI!em,c%b,5dY,5dY,5dY,5dY,5dY,5dY,5dY,A`Y05dY,5dY,5dY,5d
 Y,5dY,5dY,5dY,5dYI#db,5dY,5dY,5dY,5dY,5dY,5dY,5dY,5em$5!J-5!J,L!
 J-L!J,L!J-b!J,L!J0#!J,L!J)#!a)#!Z)#!b)#!Z)#!c)#!Z)#!d)#!Z)#!J)$%
 J)#iJ)$)J)#iJ)$-J)#iJ)$3J)#i0$9*PF'9KG#"3BA*d)%%JCfmJG'mJC@jND@j
 R)$)08Q9`C@&d)&"KFR3J3Je5CA"PBA3J8'&bG#"")'G[)(4[)'9ZC'PZCb!b$3e
 3BA*d)%-0$9"XBANJG(GTBf8X)(4SC5"cC@0[EQ3JG'PYC5"eFf8J35"KEQ3J45"
 TEL"ZEh*YB@`0F'pcDA4TEfiJCQpb)'CTFR0d)'C[GA)JE@9KFh9bCA-0$5!J35!
 J)#!J)#!J)%8J)#!J)#!J)#!J)#!J)%%J)#!J)#!J)#!J)#"&)#!J)#!J)#!J)#!
 J35!J)#!J)#!J)#"&$A`Y,5dY,5dY,5dY,5dY,5dY,5dY,5dY,5dYI#dY,5dY,5d
 Y,5dY,5dY,5dY,5dY,5dY,5em,5dY,5dY,5dY,5dY,5dY,5dY,5dY,5dY,A`0I#m
 a0#dY-64B,5dY,5dY,5dY,5dY,5dY,5em-63Y,5da0&JY,5dY,5dY,5dY,5dY,5d
 Y,A`a0#dY,6%d@#dY,5dY,5dY,5dY,5dY,5dYI!em,c%d,5da0&Ja0&Ja-eJa-eJ
 Y,5da-eJY,A`a0#dY,6%d@$%d@#dY-60B-60B,5da-bdYI$%d,5dY-64B-64B-60
 B-60B,5dY-60B,5em$A`[-63Y,5dY,6%d@$%d@$%d@$%d@$%d@#dYI$%d,6%d,5d
 Y-64B,5da0&Ja0&Ja0$%d,5em-63Y-63Y,5da0&Ja0&Ja0&Ja0&Ja0&JY,A`0I#d
 Y-#dY,6!Y,5dY,5da0#dY-64B,5dY,5em,6!Y,5dY,5dY,6!Y,5dY,5dY,6%d,5d
 Y,A`Y-#dY,5dY,5dY-#dY-63Y,6%d@#dY,5dYI!em,5dY,6!Y,5dY,6!Y,5dY,6!
 Y,6!Y,5dY,A`Y,5dY,5dY-#dY,5dY,5d`,5d`,5dY,5dYI#dY,5dY,5d`,5dY,5d
 Y,5d`,5dY,5dY,5em$5!J-5!J,L!J-L!J,L!J-b!J,L!J0#!J,L!J)#!a)#!Z)#!
 b)#!Z)#!c)#!Z)#!d)#!Z)#!J)$%J)#iJ)$)J)#iJ)$-J)#iJ)$3J)#i0)#!J)#!
 J)#!J)#!J)#!J)#!J)#!J)#!J)#!J+&BT)#!J)#!J)#!J)#!J)#!J)#!J)#!J)#!
 S9LN0)#!J)#!J)#!J)#!J)#!J)#!J)#!J)#!J)#!J)!dJ)%%J)#!J)#!J)#"&)#!
 J)#!J)#!J)%8V15!J46F[0#!J)#!J)#!J35!J)#!J)#!J)#!J)#"&0bmd)#!J)#!
 J)#""$A`Y,5dY,5dY,5dY,5dY,5dY,5dY,5dY,60HI#deALdY,68Y,5dY,5dY,5d
 Y,5dY,5dY,5em,68Y,5de,5dY,5dY,5dY,5dY,5dY,5dY,A`0I$%d,5dY-64B,5d
 Y,5dY,5dY,5dY,5dY-ejm,69H,5dY05dd,5dY,69B09JY,68Y,5dY,A`Y05dY,68
 Y,63Y,5dY-PJb@#dY-LdY,5dYI!em-63Y,5da0&Ja0&JY,6%c@$%c@#dY,5daAR`
 Y0&iY,5dY,63Y,5dY0PJf@$CB0LdY,5dYI#dd,5dY,5dY0#dY,5db@$*B-Ldb,5d
 Y,5em$A`a0#da0#dY,6%d@#dY-64B-64B-64F,6*HI#ddALdd,5dY,5dd,5dY,5d
 Y0eJY,5dY,5em,5dY0#dY,5dY,63Y,5dY,5db,5dY,5dY,A`0I#d`,5dY,5dY,5d
 `,5dY,5dY,5da0&`Y-Pjm,69H,5dY,5dY,5dY,5d`,5dY-#dY,5dY,A`Y,5dY,5d
 Y,5dY,5dY,6!Y,6!Y,5dY,5dYI!em,5dY,5dY,6!Y,5dY,5dY-#dY-#dY,5dY,A`
 Y09iY,5dY05dY,5dY,5dY-#dY,5d`,5dYI#de,5dY,5de,5dY,5dY,5d`,5dY,6!
 Y,5em$5!J-5!J,L!J-L!J,L!J-b!J,L!J0#!J,L!J)#!a)#!Z)#!b)#!Z)#!c)#!
 Z)#!d)#!Z)#!J)$%J)#iJ)$)J)#iJ)$-J)#iJ)$3J)#i0)#!J)#!J)#!J)#!J)#!
 J)#!J)#!J)#!S9&-T+&46+5!J)#!J)#!J)#!J)#!J)#!J)#!J)#!J)#!J)#!J)#!
 J)#!J)#!J)#!J$5!J)!dJ)%8J)#!J)#!J)#!J)%%J)#!J)#!J)#!J)#!J3L!J)#!
 J)#!J)#!J45!SE'9d)(*TEQFT$A`Y-&iY,5dY-#dY,5dY,5dY,5dY,5dY,5dYI#d
 Y,5dY,5dY,5dY,5dd,5dY,5dY,5dY,5em$A`Y-&iY,5dY-#dY-#dY-PJY-PJY,5d
 Y-LdYI#dd@#dY,5dY,64B,5de,5dY,5dY,5dY,5em$A`Y-9iY,5dY,5dY-5dY-PJ
 Y-PJY-PJY-LdYI#dd@#dY0#dY,64B,5dd,5dY,5dY,5dY,5em$A`Y-PiY-LdY,5d
 Y,5dY,5dY,5dY-PJY,5dbI#dY,5dY0#dY,5dY,5df,5dY,5dY,5dY,5em$A`Y-Pi
 Y,5dY,5dY,5dY,5d`,5dY,5d`,5dYI#db,5dY,5db,5dY,5dh,5dY,5dY,5dY,5e
 m$A`Y-&iY,5dY,5d`,5dY,5dY,5d`,5dY,5dYI#dY,5d`,5dY,5dY,5dY,5dY,5d
 Y,5dY,5em$5!J-5!J,L!J-L!J,L!J-b!J,L!J0#!J,L!J)#!a)#!Z)#!b)#!Z)#!
 c)#!Z)#!d)#!Z$5!S9&-T$3daFh3JG'PYC5"[EQaj$5!J3L!J)#!J)#!J)#!J45!
 J)#!J)#!J)#!J)#"#)#!J)#!J)#!J)#"&)#!J)#!J)#!J)#!J)%%J)#!J)#!J)#!
 J)#!J)#!J)#!J)%-0I#ei,5dY,5dY,5dY,5ei,5dY,5dY,5dY,5em,AJY,5dY,5d
 Y,5dY,AJY,5dY,5dY,5dY,A`YH#dY,5dY,5dY,5dY,5dY,5dY,5dY@#dYI!em,63
 Y,5dY,5dY,5dY,cNY,5dY,5dY,5dY,A`Y0#dY,5dY,5dY,5d[15dY,5dY,5dY,5d
 YI#db,5dY,5dY,5dY,5dY,5dY,5dY,5de,5em$A`Y0#dY,5dY,5dY,5d[15dY,5d
 Y,5dY,5dYI#dd,5dY,5dY,5dY,5mj,5dY,5dY,5dY,5em,6)Y,5dY,5dY,5dY,5d
 Y,5dY,5dY,68Y,A`0I#dd,5dY,5dY,5dY,5mj,5dY,5dY,5dY,5em,63Y,5dY,5d
 Y,5dY,cNY,5dY,5dY,5dY,A`Y-LdY,5dY,5dY,5dY,5dY,5dY,5dY05dYI!em,6B
 Y,5dY,5dY,5dY,c%a,5dY,5dY,5dY,A`Y0LdY,5dY,5dY,5d[-6%Y,5dY,5dY,5d
 YI#dd,5dY,5dY,5dY,5dY,5dY,5dY,5dc,5em$A`Y0bdY,5dY,5dY,5d[-6)Y,5d
 Y,5dY,5dYI#dh,5dY,5dY,5dY,5ma-LdY,5dY,5dY,5em,68Y,5dY,5dY,5dY,5d
 Y,5dY,5dY,6-Y,A`0)#!a)#!Z)#!b)#!Z)#!c)#!Z)#!d)#!Z)#!J)$%J)#iJ)$)
 J)#iJ)$-J)#iJ)$3J)#iJ)#!J-5!J,L!J-L!J,L!J-b!J,L!J0#!J,Jd0)#"#0`e
 m,AJY,5dY,5dY,5dY,5dY,5dY,5dY,5dY,A`0I#d`,5dY,5dY,5dY,5dY,5dY,5d
 Y,5dY,5em$A`Y-LdY,5dY,5dY,5dY,5dY,5dY,5dY,5dYI!em,6%Y,5dY,5dY,5d
 Y,5dY,5dY,5dY,5dY,A`0I#db,5dY,5dY,5dY,5dY,5dY,5dY,5dY,5em$A`Y-Ld
 Y,5dY,5dY,5dY,5dY,5dY,5dY,5dYI!dJ)$%J)#iJ)$)J)#iJ)$-J)#iJ)$3J)#i
 0$6*ZC#"dD@eP1JdJ)%FJ)#!J)#!J)#"$)#!J)#!J)#!J)%3h)#!J)#!J)#!J)%F
 J)#!J)#!J)#"$)#!J)#!J)#!J)#!J)%3h$A`Y,5dY,5dY,5dY,5dY,5dY,5dY,5d
 Y,5dY,5dY,5dYI#dY,5dY,5dY,5dY,5dY,5dY,5dY,5dY,5dY,5dY,5dY,5em$A`
 Y,5dY,5dY,5dY,5dY,5dY,5dY,5dY,5dY,5dY,5dYI#dY,5dY,5dY,5dY,5dY,5d
 Y,5dY,5dY,5dY,5dY,5dY,5em$A`Y,5dY,5dY0bdY,5dY,5dY,68Y,5dY,5dY,5d
 Y,68YI#dY,5dY,5dY0#dY,5dY,5dY,5dY05dY,68Y,5dY,5dY05em$A`Y,5dY,68
 Y,5dY,5dY,5dY,5dY,5dY,5dY0#dY,5dYI#dY,5de,5dY,5dY,68Y,5de,5dY,5d
 e,5dY,5dd,5dY,5em$A`Y,5dY,5dY,5dY,5dY,5dh,5dY,5dY,5dY,5de,5dYI#d
 Y,5dY,68Y,5dY,5dY05dY,6-Y,5dY,5dY,5dY,68Y,5em$A`Y0Lmh,5dY,5dY,6G
 S1#dY,5dY,5dY,68Y,5dY,5dYI#dY-bdY,5dY,5de,5dY,5dY,5dY,5dY,5dY05d
 Y,5dY,5em$5!J-5!J)#iJ)#!b)#!Z)#!c)#!J,L!J)$3J)#!Z)#!J)#!J-5!J)#i
 J)#!b)#!J,L!J)$-J)#!Z)#!J0#!J)#i0$5!J4b!J)#!J)#!J)%-J)#!J)#!J)#!
 J4$FJ)#!J)#!J)#!J4b!J)#!J)#!J)%-J)#!J)#!J)#!J)#!J4$F0I#dY,5dY,5d
 Y,5dY,5dY,5dY,5dY,5dY,5dY,5dY,5em,5dY,5dY,5dY,5dY,5dY,5dY,5dY,5d
 Y,5dY,5dY,5dY,A`0I#dY,5dY,5dY,5dY,5dY,5dY,5dY,5dY,5dY,5dY,5em,5d
 Y,5dY,5dY,5dY,5dY,5dY,5dY,5dY,5dY,5dY,5dY,A`0I#dY,5dY,5dh,5dY,5d
 Y,5dY05dY,5dY,5dY,5dY05em,5dY,5dY,5dd,5dY,5dY,5dY,5de,5dY05dY,6F
 Y,5dY,A`0I#dY,5dY05dY,5dY,5dY,5dY,5dY,5dY,5dd,5dY,5em,5dY,68Y,5d
 Y,5dY05dY,68Y,5dY,68Y,5dY,5dY,5dh,A`0I#dY,5dY,5dY,5dY,5dY,6FY,5d
 Y,5dY,5dY,68Y,5em,5dY,5dY05dY,5dY,5de,5dY-bdY,5dY,5dY,5dY05dY,A`
 0I#df,cFY,5dY,5dY0fJi,5dY,5dY,5dY05dY,5dY,5em,5dc,5dY,5dY,5dY,5d
 Y,5dY,5dY,5dY,5de,5dY,5dY,A`0)#!a)#!J,L!J)$)J)#iJ)$-J)#!Z)#!J0#!
 J)#iJ)#!J)#!a)#!J,L!J)$)J)#!Z)#!J-b!J)#iJ)#!d)#!J,Jd0)#"()#!J)#!
 J)#!J)%-J)#!J)#!J)#!J)#!J4$FJ)#!J)#!J)#"()#!J)#!J)#"$)#!J)#!J)#!
 J)#!J)#!J4$F0I#dY,5dY,5dY,5dY,5dY,5dY,5dY,5dY,5dY,5dY,5dY,5emI#d
 Y,5dY,5dc,5dY,5dY,5dY,6-Y,5dY,5dY,5dY,5dY,5dYI(`0I#dY,5dY,5dY,5d
 Y,5dY,5dY,5dY,5dY,5dY,5dY,5dY,5emI#dY,5dY,5dc,5dY,5dY,5dY,68Y,5d
 c,5dY,5dY,5dY,5dYI(`0I#dY,5dY,5dY0#dY,5dY,5dY,5dY05dY,68Y,5dY,5d
 Y,5emI#SY,5dY,5dY,5dY,5dY,5dY,5dY,5de,5dY,5dY,5dY,5dUI(`0I#dY,5d
 e,5dY,5dY,68Y,5de,5dY,5de,5dY,5de,5dY05emI#SY,5de,5dY,5dY,5de,68
 Y,5dY,5dY,5dY,5dd,5dY0#dUI(`0I#dY,5dY,68Y,5dY,5dY05dY,6-Y,5dY,5d
 Y,5dY,68Y,5emI#dY,5dY,68Y,5dc,5dY,5dY,5dY,5dY,5dY-#dY,68Y,5dYI(`
 0I#dY-bdY,5dY,5dY,5dY,5dY,5dY,5dY,5dY0bdY,5dY,5emI#dY-bdY,5dY,5d
 Y,5dY,5dY,5dY,5dY,5dY,5dY,5dY,5dYI(`0)#!J-5!J)#iJ)#!b)#!J,L!J)$-
 J)#!Z)#!J0#!J)#iJ)#!J)#!J-5!J)#iJ)#!b)#!J,L!J)$-J)#!Z)#!J0#!J)#i
 0$5!J45!J)#!J)#!J)#!J35!J)#!J)#!J)#!J3MF0I(`Y,5dY,5dY,6!Y,5dY,5d
 Y,5d`,5dY,5dY,5dY,5dY,5dYI(`0I(`Y,5dY,5dY,6!Y,5dY,5dY,5d`,5dY-#d
 Y,5dY,5dY,5dYI(`0I(`U,5dY,5dY,5dY,5dY,5dY,5dY,5dY-LdY,5dY,5dY,5d
 UI(`0I(`U,5dY-LdY,5dY,5dY-Ldb,5dY,5dY,5dY,5dY-5dY,6%UI(`0I(`Y,5d
 Y,5db,5dY-#dY,5dY,5dY,5dY,5dY,5dY,5db,5dYI(`0I(`Y,6!Y,5dY,5dY,5d
 Y,5dY,5dY,5dY,5dY,6)Y,5dY,5dYI(`0)#!J)$%J)#!Z)#!J-L!J)#iJ)#!c)#!
 J,L!J)$3J)#!Z$3e5CA"PBA3J8'&bG#"#$3e&EQ4TEQFk$3em,5dY,5dY,5dY,5d
 Y,5dY,5dY,5dY,5dY,A`Y0bdY,5dY,5dY,5dY,5dY,5dY,5dY,5dYI#da-LdY,5d
 Y,5dY,5dY,5dY,5dY,5dY,5em$A`Y0#dY,5dY,5dY,5dY,5dY,5dY,5dY,5dYI#d
 h,5dY,5dY,5dY,5dY,5dY,5dY,5dY,5em,6NY,5dY,5dY,5dY,5dY,5dY,5dY,5d
 Y,A`0I#dd,5dY,5dY,5dY,5dY,5dY,5dY,5dY,5em,6JY,5dY,5dY,5dY,5dY,5d
 Y,5dY,5dY,A`Y15dY,5dY,5dY,5dY,5dY,5dY,5dY,5dYI!em,63Y,5dY,5dY,5d
 Y,5dY,5dY,5dY,5dY,A`Y0bdY,5dY,5dY,5dY,5dY,5dY,5dY,5dYI#dj,5dY,5d
 Y,5dY,5dY,5dY,5dY,5dY,5em$A`Y-LdY,5dY,5dY,5dY,5dY,5dY,5dY,5dYI#d
 j,5dY,5dY,5dY,5dY,5dY,5dY,5dY,5em,6%a,5dY,5dY,5dY,5dY,5dY,5dY,5d
 Y,A`0I#db,5dY,5dY,5dY,5dY,5dY,5dY,5dY,5em,6FY,5dY,5dY,5dY,5dY,5d
 Y,5dY,5dY,A`Y-#dY,5dY,5dY,5dY,5dY,5dY,5dY,5dYI!dJ)$%J)#iJ)$)J)#i
 J)$-J)#iJ)$3J)#iJ)#!J-5!J,L!J-L!J,L!J-b!J,L!J0#!J,L!J)#!a)#!Z)#!
 b)#!Z)#!c)#!Z)#!d)#!Z$3eE5@iJ)NK[E@8JB@jN)%&hBANX)L"-C@mJBfpZG'P
 ZG@9c)(GTG'JJG'KTFcTG$3em,5dY,5dY,c8Y,5dY,6NY,5dY,6%b,5dY,A`Y-6)
 Y,5dY,5dY,5dY,5dY,5dY-#dY,5dYI!em,6)Y,5dY,c8Y,5dY,6%`,5dY,6%`,5d
 Y,A`Y15dY,5dY,5dY,5dY,5dY,5dY-#dY,5dYI!em,6)Y,5dY,cBY,5dY,6NY,5d
 Y,6NY,5dY,A`Y15dY,5dY,5dY,5dY,5dY,5dY-5dY,5dYI!em,6)Y,5dY,cFY,5d
 Y,6%a,5dY,6%a,5dY,A`Y15dY,5dY,5dY,5dY,5dY,5dY-LdY,5dYI!em,6!Y,5d
 Y,5dY,5dY,5dY,5dY,5dY,5dY,A`Y-6%Y,5dY,5dY,5dY,5dY,5dY-LdY,5dYI!e
 m,5dY,5dY,5dY,5dY,5dY,5dY,5dY,5dY,A`Y,5dY,5dY,5dY,5dY,5dY,5dY-#d
 Y,5dYI!dJ)$%J)#iJ)$)J)#iJ)$-J)#iJ)$3J)#iJ)#!J-5!J,L!J-L!J,L!J-b!
 J,L!J0#!J,Jd0PDB!!!:
 
 --=====================_807798587==_--
 
 
 Received: from grolsch-2.cs.ubc.ca by raven.math.ubc.ca (911016.SGI/1.14)
 id AA10736; Sun, 3 Sep 95 17:47:59 -0700
 Received: from gold.interlog.com (gold.interlog.com [198.53.145.2]) by grolsch.cs.ubc.ca (8.6.10/8.6.9) with ESMTP id RAA04174 for <dgaudet@cs.ubc.ca>; Sun, 3 Sep 1995 17:47:57 -0700
 Received: (from bahead@localhost) by gold.interlog.com (8.6.10/8.6.10) id UAA18737 for dgaudet@cs.ubc.ca; Sun, 3 Sep 1995 20:47:55 -0400
 
 
 Message-Id: <199509040047.UAA18737@gold.interlog.com>
 To: dgaudet@cs.ubc.ca
 Status: OR
 
 
 Dean,
 Heres the file, sorry if this is screwed
 up, I am using the UNIX mail program and I
 dont know what Im doing!
 _
 "Taxco Steps" by Leo Kottke
 Original Transcription by Dean Gaudet
 Revised by Bruce Head
 
 Based on version from "Home and Away".
 
 Steel 6-string, standard tuning, no capo.
 
 ============================================================================
 This is pretty much the same as Dean's original transcription, except
 that I've modified Part B and added to Part C. After frame-by-frame 
 analysis of Leo's playing on the video, I think I'm close (or as 
 close as I'm going to get). 
 
 Notes:
 
 1. In Part B, you should be able to hear three voices (bass, mid and high).
 
 2. Due to the amount of syncopation and muting in Leo's playing, I found it
 difficult to transcribe the timing. This is more of a guide. The X's 
 in the transcription are mutes. To get it right, listen to the tune 
 or better yet watch him play it on the video, if you can find a copy. 
 Especially for Part C, where Leo has that special rhythmic groove.
 
 2. In Part C, "TS" means thumb strum. Leo strums these chords with his 
 right-hand thumb. 
 
 3. All the "vigorous strumming" (listen to the recording
 to get the rhythm, it's kind of flamenco-like) Leo does with his index 
 finger and thumb held loosely together.
 
 4. In Part C, Leo fingers the E7/4 chord with his left-hand thumb over
 the fretboard at the fifth-fret on the E and A strings, his index finger 
 barred at the fourth-fret on the D,G,B and high E strings, and his ring 
 finger barred at the fifth-fret on the B and high E strings.
 
 5. In Part C, the (V) means vibrato. Leo adds a little vibrato to these 
 chords.
 
 Bruce
 ============================================================================
 
 Part A:
 
 A B7 E A B7 E A B7 E
 |-------------------0-----|-------------------------|-------------------0-----|
 |-2-----0----(0)----------|-2-----0----(0)----------|------2---0--(0)---------|
 |-2-----2-2---0h1-1-------|-2-----2-2---0h1---------|------2---2---0h1-1------|
 |-2-------1------2------2-|-2-------1------2--------|---2--2---1------2-----2-|
 |-0--0----------------2---|-0--0------------2/7-6h7-|--0------------------2---|
 |-------2---2---0---------|-------2---2---0---0-----|-----0--2-------0--------|
 1 . 2 . 3 . 4 . 1 . 2 . 3 . 4 (V) 1 . 2 . 3 . 4 .
 
 ending 1. ending 2.
 A B7 E A B7 E
 |--------------------------|-------------------------|
 |-2-----0----(0)-----------|-2-----0----------hold---|
 |-2-----2-2---0h1----0h1---|-2-----2-2---0h1--(1)----|
 |-2-------1---2---2--2-----|-2-------1---2----(2)----|
 |-0--0---------------------|-0--0--------------------|
 |-------2---2---0------0---|-------2---2-0----(0)----|
 1 . 2 . 3 . 4 . 1 . 2 . 3 . 4 .
 
 Part B:
 
 E A B7 E A B7
 |-------------------------------|----------------------------------|
 |-------------------------------|----------------------------------|
 |-------4---------2-----------2-|--------1---------------2-------2-|
 |-----2-------------------1-----|----2-------2---2---2-------1-----|
 |---------------4-----------2---|------2-------2---0---0-------2---|
 |-3/4-------4h5---------2-------|--0-----------------------2-------|
 1 . 2 . 3 . 4 . 1 . 2 . 3 . 4 .
 
 E A B7 E A B7
 |-------------------------------|----------------------------------|
 |-------------------------------|----------------------------------|
 |-------4---------2-----------2-|--------1---------------2---4-----|
 |-----2-------------------1-----|----2-------2---2---2-----------4-|
 |---------------4-----------2---|------2-------2---0---0-------2---|
 |-3/4-------4h5---------2-------|--0-----------------------2-------|
 1 . 2 . 3 . 4 . 1 . 2 . 3 . 4 .
 
 E A B7 E A B7
 |----------------------------------||--------0---------0---------------||
 |----------------------------------||--------0---------0---0-----------||
 |--------1---------------2---------||*---------------------2----------*||
 |----2-------2---2---2-------2---2-||*---2--------2-2------------1---1*||
 |------2-------2---0---0-------2---||------2---0-------------------2---||
 |--0-----------------------4-------||--0-----------------------2-------||
 1 . 2 . 3 . 4 . 1 . 2 . 3 . 4 .
 
 E A B B
 ||------------------5----------||--------------------------|
 ||--------5---------5-4--------||--4---------------------/-|
 ||*-------4-----6-----4-------*||--4--vigorous-strumming-/-|
 ||*---6-----------7---4-------*||--4---------------------/-|
 ||------7-----0---------6---6--||--6---------------------/-|
 ||--0---------------------7----||--7---------------------/-|
 1 . 2 . 3 . 4 . 1 . 2 . 3 . 4 .
 
 E A B7
 |-------------------------|-------------------------|-------------------------|
 |/9-----------------------|-2-----------------------|-------------------------|
 |/9-----------------------|-2-----------------------|-2-----------------------|
 |/9----strum strum--------|-2--strum strum strum----|-1---strum strum-strum---|
 |/11----------------------|-4-----------------------|-2-----------------------|
 |/12----------------------|-5-----------------------|-2-----------------------|
 1 . 2 . 3 . 4 . 1 . 2 . 3 . 4 . 1 . 2 . 3 . 4 .
 
 Repeat Part A go to ending 2
 Repeat Part B
 Repeat Part A go to ending 2
 
 Part C
 
 Play twice, the second time use A and E in normal
 position for first four measures
 
 A E A E A E
 |-------------------------|-------------------------|-------------------------|
 |/14--14X-----------------|14---14X-----------------|14---14X-----------------|
 |/14--14X14X13X13X---13X--|14---14X14X--13X13X--13--|14---14X14X13X13X---13X--|
 |/14-----14X14X14X14X14X--|14-14---14X--14X14X1414--|14-14---14X14X14X14X14X--|
 |--0---0------14--14X-----|-0--------0--------14----|-0--------0--14--14X-----|
 |----0-----0-----0--0-----|-------0-------0--0------|-------0--------0--------|
 1 . 2 . 3 . 4 . 1 . 2 . 3 . 4 . 1 . 2 . 3 . 4 .
 (V) (V)
 
 A E E+9 E7/4 A E7/4 A
 |-----------------------3^|-5^---5------------------|-5---5-------------------|
 |14---14X---------------3^|-5^---5-4----5X5X--5-----|-5---5--4----2X2X--2-----|
 |14---14X14X--13X13X----1^|-4^-----4----6X6X6X6-----|-4------4----2X2X2-2-----|
 |14-14---14X--14X14X14\-2^|-4^-4-----4------7X------|---4------4------2-------|
 |-0--------0--------14\-2^|-5^-----------0---0------|--------------0--0-------|
 |-------0-------0--0------|-5^----5--------0----0---|-5-----5--------0----0---|
 1 . 2 . 3 . 4 . 1 . 2 . 3 . 4 . 1 . 2 . 3 . 4 .
 (TS)(TS) 
 
 E A B E (let ring)
 |-0^----0-----------------|-------------4-----------|
 |-0^----0--0--2X-2X----2--|-4X------4X--5-----------|
 |-1^-------1--2X-2X-2X-2--|-4X--4---4X--4-----------|
 |-2^-2--------------2X---2|-----4-------6-----------|
 |-2^------------0-----0---|-2-----2-----7-----------|
 |-0^------0--------0------|----0--------------------|
 1 . 2 . 3 . 4 . 1 . 2 . 3 . 4 .
 (TS)
 
 1st time only
 B E B E A C
 |-x-----------x-----------|-x-----------x-----------|-x--------------------X--|
 |-4----------/9-----------|-4----------/9-----------|-2--------------------5--|
 |-4----------/9-----------|-4----------/9-----------|-2--------------------5--|
 |-4----------/9-----------|-4----------/9-----------|-2--------------------5--|
 |-6----------/11----------|-6----------/11----------|-4--------------------3--|
 |-7----------/12----------|-7----------/12----------|-5--------------------3--|
 1 . 2 . 3 . 4 . 1 . 2 . 3 . 4 . 1 . 2 . 3 . 4 .
 
 B7
 |-x-----------------------|
 |-0-----------------------|
 |-2-----------------------|
 |-1-----------------------|
 |-2-----------------------|
 |-2-----------------------|
 1 . 2 . 3 . 4 .
 
 2nd time:
 G C D7 G C D7
 |-------------------------------|----------------------------------|
 |-------------------------------|----------------------------------|
 |-------7---------5-----------5-|--------4-----------5---5-------5-|
 |-----5-------------------4-----|----5-------5---5-----5-----4-----|
 |---------------7-----------5---|------5-------5---3-----------5---|
 |-6/7-------7h8---------5-------|--3-------5---------------5-------|
 1 . 2 . 3 . 4 . 1 . 2 . 3 . 4 .
 
 G C D7 G C D7
 |-------------------------------|----------------------------------|
 |-------------------------------|----------------------------------|
 |-------7---------5-----------5-|--------4-----------5---5---7-----|
 |-----5-------------------4-----|----5-------5---5-----5---------7-|
 |---------------7-----------5---|------5-------5---3-----------5---|
 |-6/7-------7h8---------5-------|--3-----------------------5-------|
 1 . 2 . 3 . 4 . 1 . 2 . 3 . 4 .
 
 G C D7 G C D7
 |----------------------------------||-------3----------3----------------||
 |----------------------------------||-------3----------5---3------------||
 |--------4-----------5---5---------||*---------------------5-----------*||
 |----5-------5---5-----5-----5---5-||*---5--------5-5------------4---4-*||
 |------5-------5---3-----------5---||------5---3---------------0---5----||
 |--3-----------------------7-------||--3--------------------------------||
 1 . 2 . 3 . 4 . 1 . 2 . 3 . 4 .
 
 E A B7
 ||--------0---------0---------------||
 ||--------0---------0---0-----------||
 ||*---------------------2----------*||
 ||*---2--------2-2------------1---1*||
 ||------2---0-------------------2---||
 ||--0-----------------------2-------||
 1 . 2 . 3 . 4 .
 
 Repeat Part B
 
 Ending:
 
 |-------------------------|-7-----------------------|-12----------------------|
 |-4-----------------------|-7-----------------------|-9-----------------------|
 |-4-----------------------|-8-----------------------|-9-----------------------|
 |-4-----------------------|-7-----------------------|-9-----------------------|
 |-2-----------------------|-9-----------------------|-11----------------------|
 |-2-----------------------|-7-----------------------|-0-----------------------|
 1 . 2 . 3 . 4 . 1 . 2 . 3 . 4 . 1 . 2 . 3 . 4 .
 
 [In "Home and Away," Leo continues with this:]
 
 |------/5-----9-----12----|-12----------------0-----|
 |-2----/5-----10----10----|-9-----------------0-----|
 |-2----/6-----9-----9-----|-9-----------------1-----|
 |-2----/7-----11----11----|-9-----------------2-----|
 |-0-----------------------|-11----------------2-----|
 |-------------------------|-------------------0-----|
 1 . 2 . 3 . 4 . 1 . 2 . 3 . 4 .
 


Important: The song above is NOT stored on the Chordie server. The original song is hosted at chordiearchive.chordie.com. Chordie works as a search engine and provides on-the-fly formatting. Chordie does not index songs against artists'/composers' will. To remove this song please click here.

This song is displayed as text-only. Transposing and tuning is only available for chordpro-songs.
Rate #1 of 2 versions

Jango Player

Login - add to songbook

SHARE PAGE  



You need to log in to post comments