Guitar Tabs, Chords and Lyrics
Major upgrade!! After one year development the new version of Chordie is now online! Please give feedback.


Torn  Toad the Wet Sprocket


 


 

[tbe riff] 
The riff doesn't sound good unless it's backed by a bass.
If you're just playing this acoustically, play the chords. :)
 
 -------------------------------------------------
 -------------------------------------------------
 ------2-2------2-2------2-2--2-0-----------------
 -------------------------------------------------
 --0h2--------------------------------------------
 -----------0h2------2h3--------------------------

[intro] 
Bm Gbm G (2x)
[verse1] 
[Bm]I [Gbm]fear no[G]thing
[Bm]Besides [Gbm]my - se[G]lf
[Bm]Please [Gbm]don't to[G]uch me
[Bm]Love like an infant [Gbm]trying to stand up[G]
[cborus] 
[C]Am I two souls, one hard, one c[G]old?
[C]Am I real? I don't want to feel [G]anything
[D]Anymore[C]
[verse2] 
[Bm]I [Gbm]feel no[G]thing
[Bm]Beside [Gbm]this pa[G]in
[Bm]Please [Gbm]don't wa[G]tch me
[Bm]Love like an infant [Gbm]scared and cr[G]awling
[repeat cborus] 
[solo] 
 
 -10--7---------------------|-10--7--12-------------------------------
 ---------10--7--7h8--7-----|------------10--7h8--10--8--7--7h8--10--8
 ------------------------7--|-----------------------------------------
 ---------------------------|-----------------------------------------
 ---------------------------|-----------------------------------------
 ---------------------------|-----------------------------------------
 -----------------------------------|-------------------------
 -7--8--10--8--7--------------------|-------------------------
 -----------------7h9--7------------|-------------------------
 -------------------------9-9/12-12-|-11\9--------------------
 -----------------------------------|-------9--10--12--10--9--
 -----------------------------------|-------------------------
 ----------------------------------
 ----------------------------------
 ----------------------------------
 ----------------------------------
 ----------------------------------
 -12--10-10-10---9-9---7-7---5/7---

NOTE: I originally played this song as a Bm D G Bm A G progression,
and, acoustically at least, it sounds fine that way. It
can be easier than barring the Gbm.

Important: The song above is NOT stored on the Chordie server. The original song is hosted at chordiearchive.chordie.com. Chordie works as a search engine and provides on-the-fly formatting. Chordie does not index songs against artists'/composers' will. To remove this song please click here.

Text color:
Chord color:
Chord grids: 
Font size:    
Page size: 

Bm C D G Gbm
Rate #1 of 7 versions

Jango Player

Login - add to songbook

SHARE PAGE  




You need to log in to post comments