Guitar Tabs, Chords and Lyrics
Major upgrade!! After one year development the new version of Chordie is now online! Please give feedback.


Queen of the Rodeo   Alice in Chains

 
 Eb|--------0------------0----|--------0---------0-3-----|
 Bb|--------0------------0----|--------0-------3-----5---|
 Gb|-----4--4---------0--0----|-----4--4-----4-----------|
 Db|-----5-----4------2-----4-|-----5-----4------------4-|
 Ab|-5---5-----4--2---2-----4-|-5---5-----4------------4-|
 Eb|-3---------2--0---------2-|-3---------2-0----------2-|

 


 | [Gtr.2 Electric w/Lead Tone] |


 

 
 Eb|-----------------------------------------------------|
 Bb|-----------------------------------------------------|
 Gb|-14b16----------------14b16r14-12-14-12--------------|
 Db|-----------------------------------------12h14----12h|
 Ab|-----------------------------------------------------|
 Eb|-----------------------------------------------------|

 


 


 [1st Verse] (cont.)


 [Gtr.1 Electric w/Cborus] 


 

 
 Eb|--------0------------0----|-------0-0-----------0----|
 Bb|--------0------------0----|-------0-0-----------0----|
 Gb|-----4--4---------0--0----|---4-4-4-4--------0--0----|
 Db|-----5-----4------2-----4-|---5-5-----4------2-----4-|
 Ab|-5---5-----4--2---2-----4-|-5-5-5-----4--2---2-----4-|
 Eb|-3---------2--0---------2-|-3---------2--0---------2-|

 


 | [Gtr.2 Electric w/Lead Tone] |


 

 
 Eb|-----------------------------------------------------|
 Bb|-----------------------------------------------------|
 Gb|---------------------------------------------------12|
 Db|14p12------------------9p7---------------------------|
 Ab|--------------------------10p7h8p7----------(fret)---|
 Eb|--------------------------------------------(noise)--|

 


 


 [1st Verse] (cont.)


 [Gtr.1 Electric w/Cborus] 


 

 
 Eb|-----0-0-0-----------0----|-------0-0-----------0----|
 Bb|-----0-0-0-----------0----|-------0-0-----------0----|
 Gb|---4-4-4-4--------0--0----|---4-4-4-4--------0--0----|
 Db|---5-5-----4------2-----4-|---5-5-----4------2-----4-|
 Ab|-5-5-5-----4--2---2-----4-|-5-5-5-----4--2---2-----4-|
 Eb|-3---------2--0---------2-|-3---------2--0---------2-|

 


 | [Gtr.2 Electric w/Lead Tone] |


 

 
 Eb|------------------*----------------------------------|
 Bb|------------------*----------------------------------|
 Gb|p9--12-12--5------*----------------------------------|
 Db|--12---------7----*----------------------------------|
 Ab|------------------*----------------------------------|
 Eb|------------------*----------------------------------|

 


 * From this point, the 1st Verse


 isn't transcribed very well.


 


 [1st Verse] (cont.)


 [Gtr.1 Electric w/Cborus] 


 

 
 Eb|--------0------------0----|--------0------------0----|
 Bb|--------0------------0----|--------0------------0----|
 Gb|-----4--4---------0--0----|-----4--4---------0--0----|
 Db|-----5-----4------2-----4-|-----5-----4------2-----4-|
 Ab|-5---5-----4--2---2-----4-|-5---5-----4--2---2-----4-|
 Eb|-3---------2--0---------2-|-3---------2--0---------2-|

 


 | [Gtr.2 Electric w/Lead Tone] |


 

 
 Eb|-----------------------------------------------------|
 Bb|-----------------------------------------------------|
 Gb|-----------------------------------------------------|
 Db|-----------------------------------------------------|
 Ab|-----------------------------------------------------|
 Eb|-----------------------------------------------------|

 


 


 [1st Verse] (cont.)


 [Gtr.1 Electric w/Cborus] 


 

 
 Eb|--------0------------0----|--------0------------0----|
 Bb|--------0------------0----|--------0------------0----|
 Gb|-----4--4---------0--0----|-----4--4---------0--0----|
 Db|-----5-----4------2-----4-|-----5-----4------2-----4-|
 Ab|-5---5-----4--2---2-----4-|-5---5-----4--2---2-----4-|
 Eb|-3---------2--0---------2-|-3---------2--0---------2-|

 


 | [Gtr.2 Electric w/Lead Tone] |


 

 
 Eb|-----------------------------------------------------|
 Bb|-----------------------------------------------------|
 Gb|-----------------------------------------------------|
 Db|-----------------------------------------------------|
 Ab|-----------------------------------------------------|
 Eb|-----------------------------------------------------|

 


 


 [1st Verse] (cont.)


 [Gtr.1 Electric w/Cborus] 


 

 
 Eb|--------0------------0----|--------0------------0----|
 Bb|--------0------------0----|--------0------------0----|
 Gb|-----4--4---------0--0----|-----4--4---------0--0----|
 Db|-----5-----4------2-----4-|-----5-----4------2-----4-|
 Ab|-5---5-----4--2---2-----4-|-5---5-----4--2---2-----4-|
 Eb|-3---------2--0---------2-|-3---------2--0---------2-|

 


 | [Gtr.2 Electric w/Lead Tone] |


 

 
 Eb|-----------------------------------------------------|
 Bb|-----------------------------------------------------|
 Gb|-----------------------------------------------------|
 Db|-----------------------------------------------------|
 Ab|-----------------------------------------------------|
 Eb|-----------------------------------------------------|

 


 


 [1st Verse] (cont.)


 [Gtr.1 Electric w/Cborus] 


 

 
 Eb|--------0------------0----|--------0------------0----|
 Bb|--------0------------0----|--------0------------0----|
 Gb|-----4--4---------0--0----|-----4--4---------0--0----|
 Db|-----5-----4------2-----4-|-----5-----4------2-----4-|
 Ab|-5---5-----4--2---2-----4-|-5---5-----4--2---2-----4-|
 Eb|-3---------2--0---------2-|-3---------2--0---------2-|

 


 | [Gtr.2 Electric w/Lead Tone] |


 

 
 Eb|-----------------------------------------------------|
 Bb|-----------------------------------------------------|
 Gb|-----------------------------------------------------|
 Db|-----------------------------------------------------|
 Ab|-----------------------------------------------------|
 Eb|-----------------------------------------------------|

 


 


 [PreCborus] 


 [Gtr.1 Electric w/Cborus] 


 

 
 Eb|-----------------------------------------------------|
 Bb|-----------------------------------------------------|
 Gb|/5-5----5-5----5----5-5---5--5-----------------------|
 Db|/5-5----5-5----5----5-5---5--5-----------------------|
 Ab|/3-3----3-3----3----3-3---3--3-----------------------|
 Eb|-----------------------------------------------------|

 


 


 [PreCborus] (cont.)


 [Gtr.1 Electric w/Cborus] 


 

 
 Eb|--------0------------0----|-----0--0-0---------------|
 Bb|--------0------------0----|-----0--0-0---------------|
 Gb|-----4--4---------0--0----|---4-4--4-4-----0---------|
 Db|-----5-----4------2-----4-|---5-5------4---2---------|
 Ab|-5---5-----4--2---2-----4-|-5-5-5------4---2---------|
 Eb|-3---------2--0---------2-|-3----------2---0---------|

 


 | [Gtr.2 Electric w/Lead Tone] |


 

 
 Eb|-------------------------------------------19~-------|
 Bb|-----------------------------------12-15p12----------|
 Gb|-14b16--14b16r14p12~~------12-14b16------------------|
 Db|----------------------12h14--------------------------|
 Ab|-----------------------------------------------------|
 Eb|-----------------------------------------------------|

 


 | [Gtr.3 Distorted Electric] |


 

 
 Eb|-----------------------------------------------------|
 Bb|-----------------------------------------------------|
 Gb|-------------------------------------------0---------|
 Db|-------------------------------------------2---------|
 Ab|-------------------------------------------2---------|
 Eb|-------------------------------------------0---------|

 


 


 [Cborus] 


 [Gtr.3 Distorted Electric] 


 v ^ v ^ v v ^ v ^ v v ^ v ^ v v ^ v ^ v


 

 
 Eb|----------------------------------------------------|
 Bb|----------------------------------------------------| Play
 Gb|----------------------------------------------------| Three
 Db|-5--5-5--5-5--5--5-5--5-4--2--2-2--2-2--2--2-2--2-4-| Times
 Ab|-5--5-5--5-5--5--5-5--5-4--2--2-2--2-2--2--2-2--2-4-|
 Eb|-3--3-3--3-3--3--3-3--3-2--0--0-0--0-0--0--0-0--0-2-|

 


 


 [Cborus] (cont.)


 [Gtr.3 Distorted Electric] 


 v ^ v ^ v v ^ v ^ v v ^ v ^ v ^ v ^ v


 

 
 Eb|----------------------------------------------------|
 Bb|----------------------------------------------------|
 Gb|----------------------------------------------------|
 Db|-5--5-5--5-5--5--5-5--5-4--2-2-2-2-2-2-2-2-2--------|
 Ab|-5--5-5--5-5--5--5-5--5-4--2-2-2-2-2-2-2-2-2--------|
 Eb|-3--3-3--3-3--3--3-3--3-2--0-0-0-0-0-0-0-0-0--------|

 


 


 [End Of Cborus Bass Riff] (arranged for guitar)


 [Gtr.4 Clean Electric Pitcb-Sbifted Down 1 Octave] 


 

 
 Eb|----------------------------------------------------|
 Bb|----------------------------------------------------|
 Gb|----------------------------------------------------|
 Db|----------------------------------------------------|
 Ab|-7-5------------------------------------------------|
 Eb|-----7-5-3-0----------------------------------------|


Important: The song above is NOT stored on the Chordie server. The original song is hosted at chordiearchive.chordie.com. Chordie works as a search engine and provides on-the-fly formatting. Chordie does not index songs against artists'/composers' will. To remove this song please click here.

This song is displayed as text-only. Transposing and tuning is only available for chordpro-songs.
Rate #1 of 1 versions

Login - add to songbook

SHARE PAGE  




You need to log in to post comments