Guitar Tabs, Chords and Lyrics
Major upgrade!! After one year development the new version of Chordie is now online! Please give feedback.


Never Say Die  Black Sabbath



 

[#]# From The Headless Cross Tab Page [#]#
 

Started:
Finished: 11:24 PM 11/28/98
Black Sabbath - Never Say Die
From Black Sabbath's "Never Say Die" Album October, 1978
Tuning Info: Standard (E) Tuning, 440Hz, Allegro, 152 beats/min.
NOTE: Lyrics may not match written music or may be incorrect.
[A] [B] [D] [A] [A] [B] [D] [A] [A] [B] [D] [A] [A] [B] [D] [A]  
 
 -------------------------------------------------------------------------------
 -------------------------------------------------------------------------------
 --2---4---7---2------2---4---7---2------2---4---7---2------2---4---7---2-------
 --2---4---7---2------2---4---7---2------2---4---7---2------2---4---7---2-------
 --0---2---5---0-3p0--0---2---5---0-3p0--0---2---5---0-3p0--0---2---5---0-3p0---
 -------------------3------------------3------------------3------------------3--

[A] [B] [D] [A] [A] [B] [D] [A] [A] [B] [D] [A] [A] [B] [D] [A]  
 
 -------------------------------------------------------------------------------
 -------------------------------------------------------------------------------
 --2---4---7---2------2---4---7---2------2---4---7---2------2---4---7---2-------
 --2---4---7---2------2---4---7---2------2---4---7---2------2---4---7---2-------
 --0---2---5---0-3p0--0---2---5---0-3p0--0---2---5---0-3p0--0---2---5---0-3p0---
 -------------------3------------------3------------------3------------------3--

People going nowhere, taken for a ride. Looking for the answers that they have inside
[A] [B] [D] [A] [A] [B] [D] [A] [A] [B] [D] [A] [A] [B] [D] [A]  
 
 -------------------------------------------------------------------------------
 -------------------------------------------------------------------------------
 --2---4---7---2------2---4---7---2------2---4---7---2------2---4---7---2-------
 --2---4---7---2------2---4---7---2------2---4---7---2------2---4---7---2-------
 --0---2---5---0-3p0--0---2---5---0-3p0--0---2---5---0-3p0--0---2---5---0-3p0---
 -------------------3------------------3------------------3------------------3--

Searching for a reason, looking for a ride. No one is innocent, partners in crime.
CHOURSE
[F] [F] [F]  
 
 --------------------------------------------------------------------------------
 --------------------------------------------------------------------------------
 -5----------------------5---------------------5---------------------------------
 -3----------------------3---------------------3---------------------------------
 -3--3-3--2-2--0-0-------3--3-3--2-2--3-3--5/7-3--3-3--2-2--0-0------------------
 -1-----------------3-3--1---------------------1----------------3-1--------------

Don't they have to worry? Don't you ever wonder why? It's the part of me that
kills you.
 
 -----------------------------------------------------------------------------
 --------------------3---------5----------7-----------9----------10-----------
 --------------------5^(7`5)---7^(9`7)----9^(11`9)---11^(13`11)--12^(14`12)---
 -----------------------------------------------------------------------------
 ----0---2---3---5------------------------------------------------------------
 -3---------------------------------------------------------------------------

(Guitar 1)
Oh, don't you ever, don't ever say die. Never, never, never say die
 
 -----------------------12------12------12------------
 -12----------15p12--12-14^(16)-14^(16)-14^(16)-------
 -14^(16`14)-------14---------------------------------
 ----------------------------------------------------- {Yea, it doesn't line
 ----------------------------------------------------- up...sorry!}
 ----------------------------------------------------- 

(Guitar 1)
again!
[A] [B] [D] [A] [A] [B] [D] [A]  
 
 -------------------------------------------
 -------------------------------------------
 --2---4---7---2------2---4---7---2---------
 --2---4---7---2------2---4---7---2---------
 --0---2---5---0-3p0--0---2---5---0-3p0-----
 -------------------3------------------3----

[A] [B] [D] [A] [A] [B] [D] [A] [A] [B] [D] [A] [A] [B] [D] [A]  
 
 -------------------------------------------------------------------------------
 -------------------------------------------------------------------------------
 --2---4---7---2------2---4---7---2------2---4---7---2------2---4---7---2-------
 --2---4---7---2------2---4---7---2------2---4---7---2------2---4---7---2-------
 --0---2---5---0-3p0--0---2---5---0-3p0--0---2---5---0-3p0--0---2---5---0-3p0---
 -------------------3------------------3------------------3------------------3--

Someday satisfaction. Madness on the rise. Truth is on the door step. Welcome
in the lies
[A] [B] [D] [A] [A] [B] [D] [A] [A] [B] [D] [A] [A] [B] [D] [A]  
 
 -------------------------------------------------------------------------------
 -------------------------------------------------------------------------------
 --2---4---7---2------2---4---7---2------2---4---7---2------2---4---7---2-------
 --2---4---7---2------2---4---7---2------2---4---7---2------2---4---7---2-------
 --0---2---5---0-3p0--0---2---5---0-3p0--0---2---5---0-3p0--0---2---5---0-3p0---
 -------------------3------------------3------------------3------------------3--

All dressed up in sorrow. Got no place to go. Hold tight, do it right, taking it
slow.
CHOURSE
[F] [F] [F]  
 
 --------------------------------------------------------------------------------
 --------------------------------------------------------------------------------
 -5----------------------5---------------------5---------------------------------
 -3----------------------3---------------------3---------------------------------
 -3--3-3--2-2--0-0-------3--3-3--2-2--3-3--5/7-3--3-3--2-2--0-0------------------
 -1-----------------3-3--1---------------------1----------------3-1--------------

Don't they ever have to worry? Don't you ever wonder why? It's a part of me that
kills you.
 
 -----------------------------------------------------------------------------
 --------------------3---------5----------7-----------9----------10-----------
 --------------------5^(7`5)---7^(9`7)----9^(11`9)---11^(13`11)--12^(14`12)---
 -----------------------------------------------------------------------------
 ----0---2---3---5------------------------------------------------------------
 -3---------------------------------------------------------------------------

(Guitar 1)
Oh, don't you ever, don't ever say die. Never, never, never say die
 
 -----------------------12------12------12------------
 -12----------15p12--12-14^(16)-14^(16)-14^(16)-------
 -14^(16`14)-------14---------------------------------
 -----------------------------------------------------
 -----------------------------------------------------
 ----------------------------------------------------- 

(Guitar 1)
again!
[A] [B] [D] [A] [A] [B] [D] [A]  
 
 -------------------------------------------
 -------------------------------------------
 --2---4---7---2------2---4---7---2---------
 --2---4---7---2------2---4---7---2---------
 --0---2---5---0-3p0--0---2---5---0-3p0-----
 -------------------3------------------3----
 ---------------------------------------------------------------
 -12-----12-----10-----10-----12-----12-----10-----10-----------
 ---12-----12-----10-----10-----12-----12-----10-----10---------
 -----12-----12-----10-----10-----12-----12-----10-----10-------
 ---------------------------------------------------------------
 ---------------------------------------------------------------

Don't you ever say die. Don't you ever say die.
[E] [E] [E] [E] [E] [E] [E] [E] [E] [E] [E] [E] [E] [E]  
 
 -------------------------------------------------------------------------
 -----5------5---7------5-----5----7--------------------------------------
 ----*--5--5----*--7---*--5--5----*--7---9-9-9-9--9-9-9--9-9-9-9--9-9-9---
 ---5----5-----7------5----5-----7----7--9-9-9-9--9-9-9--9-9-9-9--9-9-9---
 -0-----------5------0----------5--------7-7-7-7--7-7-7--7-7-7-7--7-7-7---
 -------------------------------------------------------------------------

Never say die
[A] [B] [D] [A] [A] [B] [D] [A] [A] [B] [D] [A] [A] [B] [D] [A]  
 
 -------------------------------------------------------------------------------
 -------------------------------------------------------------------------------
 --2---4---7---2------2---4---7---2------2---4---7---2------2---4---7---2-------
 --2---4---7---2------2---4---7---2------2---4---7---2------2---4---7---2-------
 --0---2---5---0-3p0--0---2---5---0-3p0--0---2---5---0-3p0--0---2---5---0-3p0---
 -------------------3------------------3------------------3------------------3--

Painting silver lining, writing's on the wall. Children get together. You can
save us all.
[A] [B] [D] [A] [A] [B] [D] [A] [A] [B] [D] [A] [A] [B] [D] [A]  
 
 -------------------------------------------------------------------------------
 -------------------------------------------------------------------------------
 --2---4---7---2------2---4---7---2------2---4---7---2------2---4---7---2-------
 --2---4---7---2------2---4---7---2------2---4---7---2------2---4---7---2-------
 --0---2---5---0-3p0--0---2---5---0-3p0--0---2---5---0-3p0--0---2---5---0-3p0---
 -------------------3------------------3------------------3------------------3--

Future's 'round the corner, showing us in time. Slow down, turn around, everything's
fine!
CHOURSE
[F] [F] [F]  
 
 --------------------------------------------------------------------------------
 --------------------------------------------------------------------------------
 -5----------------------5---------------------5---------------------------------
 -3----------------------3---------------------3---------------------------------
 -3--3-3--2-2--0-0-------3--3-3--2-2--3-3--5/7-3--3-3--2-2--0-0------------------
 -1-----------------3-3--1---------------------1----------------3-1--------------

There's no need to have a reason. There's no need to wonder why? It's a part of me that
kills you.
 
 -----------------------------------------------------------------------------
 --------------------3---------5----------7-----------9----------10-----------
 --------------------5^(7`5)---7^(9`7)----9^(11`9)---11^(13`11)--12^(14`12)---
 -----------------------------------------------------------------------------
 ----0---2---3---5------------------------------------------------------------
 -3---------------------------------------------------------------------------

(Guitar 1)
Oh, don't you ever, don't ever say die. Never, never, never say die
 
 -----------------------12------12------12------------
 -12----------15p12--12-14^(16)-14^(16)-14^(16)-------
 -14^(16`14)-------14---------------------------------
 -----------------------------------------------------
 -----------------------------------------------------
 ----------------------------------------------------- 

(Guitar 1)
again!
LEAD
 
 ----------------------------------------------------------------
 -5h8p5-5h8---------5-7p5-----5-7p5-----5-7p5--------------------
 ------7---5---7^(9)-----7^(9)-----7^(9)-----5-------------------
 -----------7~--------------------------------7~----7~----7~-----
 ------------------------------------------------5/7---5/7-------
 ----------------------------------------------------------------

(Guitar 1)
 
 -------------------------------------
 -------------------------------------
 -------------------------------------
 -9^(11)-9^(11)-9^(11)-9^(11`9)-7-7~--
 --------------------------------9----
 -------------------------------------

(Guitar 1)
[A] [B] [D] [A] [A] [B] [D] [A] [A] [B] [D] [A] [A] [B] [D] [A]  
 
 -------------------------------------------------------------------------------
 -------------------------------------------------------------------------------
 --2---4---7---2------2---4---7---2------2---4---7---2------2---4---7---2-------
 --2---4---7---2------2---4---7---2------2---4---7---2------2---4---7---2-------
 --0---2---5---0-3p0--0---2---5---0-3p0--0---2---5---0-3p0--0---2---5---0-3p0---
 -------------------3------------------3------------------3------------------3--

(Guitar 2)
 
 ------------------------------------8-10p8h10p8--------------------------------
 -5----5-7p5-5----5-7p5-5-----5-7p5-------------10p8h10p8h10p8------------------
 -7^(9)------7^(9)------7^(9)---------------------------------7h9p7\5h7p5h7p5---
 -------------------------------------------------------------------------------
 -------------------------------------------------------------------------------
 -------------------------------------------------------------------------------

(Guitar 1)
 
 -----------------------
 -----------------------
 -----------------------
 -7~(/9\5)--------------
 -----------------------
 -----------------------

(Guitar 1)
[A] [B] [D] [A] [A] [B] [D] [A] [A] [B] [D] [A] [A] [B] [D] [A]  
 
 -------------------------------------------------------------------------------
 -------------------------------------------------------------------------------
 --2---4---7---2------2---4---7---2------2---4---7---2------2---4---7---2-------
 --2---4---7---2------2---4---7---2------2---4---7---2------2---4---7---2-------
 --0---2---5---0-3p0--0---2---5---0-3p0--0---2---5---0-3p0--0---2---5---0-3p0---
 -------------------3------------------3------------------3------------------3--

(Guitar 2)
 
 -----------------------------------------------------------------------------
 -------------------5-8p5h8---------------------------------------------------
 ----------5h7-7p5h7-------7p5h7p5-5------------------------------------------
 -------5h7-----------------------7--7p5-7p5----------------------------------
 --3h5-7------------------------------------7p5\3-5p3-5p3---------------------
 -5----------------------------------------------5---5---5--------------------

[A] [B] [D] [A] [A] [B] [D] [A] [A] [B] [D] [A] [A] [B] [D] [A]  
 
 -------------------------------------------------------------------------------
 -------------------------------------------------------------------------------
 --2---4---7---2------2---4---7---2------2---4---7---2------2---4---7---2-------
 --2---4---7---2------2---4---7---2------2---4---7---2------2---4---7---2-------
 --0---2---5---0-3p0--0---2---5---0-3p0--0---2---5---0-3p0--0---2---5---0-3p0---
 -------------------3------------------3------------------3------------------3--

(Guitar 2)
[A] [A] [G] [A] [A] [G] [A] [A] [G] [A]  
 
 ------------------------------------------------------
 ------------------------------------------------------
 --6-6\(4)--6-6\(4)--6-6\(4)--6------------------------
 --7-7\(5)--7-7\(5)--7-7\(5)--7------------------------
 --7-7\(5)--7-7\(5)--7-7\(5)--7-{Let ring)-------------
 --5-5\(3)--5-5\(3)--5-5\(3)--5------------------------

Never say Die.

Important: The song above is NOT stored on the Chordie server. The original song is hosted at chordiearchive.chordie.com. Chordie works as a search engine and provides on-the-fly formatting. Chordie does not index songs against artists'/composers' will. To remove this song please click here.

Text color:
Chord color:
Chord grids: 
Font size:    
Page size: 

A B D E F G
Rate #1 of 4 versions

Jango Player

Login - add to songbook

SHARE PAGE  




You need to log in to post comments