Guitar Tabs, Chords and Lyrics
Major upgrade!! After one year development the new version of Chordie is now online! Please give feedback.


Into White  Cat Stevens

CAPO AT 2nd FRET (Key of D)
  
 Intro 
 E |--0-------|-2----------|-0--------|-2----------| 
 B |--1-------|-3----------|-1--------|-3----------| 
 G |-----0----|----2-------|----0-----|---2--------| (x2) 
 D |----------|------------|----------|-0----------| 
 A |--3-----2-|-0-----0--2-|-3-----2--|-----0--2---| 
 E |----------|------------|----------|------------| 

[C] [C/B] [D/A] [C] [C/B] [D]  
Verse 1
[C] [C/B] [D/A]  
I bu[C]ild[C/B] my h[D/A]ouse from b[C]ar-[C/B]ley r[D]ice, gr[C]een pepp[C/B]-er w[D/A]alls ,
& w[C]at[C/B]-er i[D]ce, tab[G]les of pap[C]erwood, win[D]dows of [Fadd9]light--[C]--,
  
 E |--3----|-------------|-0----|------|---0--|------| 
 B |--0----|-------------|-0----|------|---0--|------| 
 G |-------|-------------|-2----|------|---1--|------| 
 D |-------|-0-----------|-2----|------|---2--|------| 
 A |--2----|----3---2----|-2----|------|---2--|------| 
 E |--3----|-----------3-|-0----|------|---0--|------| 

And [G]everything [D]emptying in-to whi[Esus4]te [E]
Intro
Verse 2
A s[C]im-[C/B]ple ga[D/A]rden with ac[C]res [C/B]of s[D]ky,
a b[C]rown ha[C/B]ired [D/A]dog mouse,
If [C]one [C/B]dropped [D]by,
[G]yellow de[C]lanie would [D]sleep well at [Fadd9]night[C],
With [G]everything [D]emptying into white[Esus4] [E]
Intro
Break
(xx3213)
Ah[G]----, [C]ah, ah-ah, ah [D] [Fadd9] [C]
[G] [D] [Esus4] [E]  
Verse 3
A s[C]ad blue e[C/B]yed dr[D/A]ummer re-hea[C]rses [C/B]out-s[D]ide,
a b[C]lack spi-[C/B]der da[D/A]ncing on t[C]op of [C/B]his e[D]ye,
r[G]ed legged chi[C]cken stands re[D]ady to [Fadd9]strike-[C]---,
And [G]everything [D]emptying into white[Esus4] [E]
Verse 4
I bu[C]ild[C/B] my h[D/A]ouse from b[C]ar-[C/B]ley r[D]ice,
gr[C]een pepp[C/B]-er w[D/A]alls, and w[C]at[C/B]-er i[D]ce,
[G] [C] [D] [Fadd9] [C]  
  
 E |--3--------------------0------|-------| 
 B |--0--------------------0------|-------| 
 G |-----------------------2------|-------| 
 D |--------0--------------2------|-------| 
 A |--2--------3---2-------2------|-------| 
 E |--3--3-------------3---0------|-------| 

And [G]everything [D]emptying into white[Esus4] [E]
[D] [E]  
  
 E |--------------------------4-----------| 
 B |--------------------------0-----------| 
 G |---2---0------------------1-----------| 
 D |------------4----0--------2-----------| 
 A |--------------------------2-----------| 
 E |--------------------------0-----------| 

Important: The song above is NOT stored on the Chordie server. The original song is hosted at chordiearchive.chordie.com. Chordie works as a search engine and provides on-the-fly formatting. Chordie does not index songs against artists'/composers' will. To remove this song please click here.

Text color:
Chord color:
Chord grids: 
Font size:    
Page size: 

C C/B D E Esus4 Fadd9 G
Rate #1 of 10 versions

Jango Player

Login - add to songbook

SHARE PAGE  




You need to log in to post comments