Guitar Tabs, Chords and Lyrics
Server problems seems to be fixed. Chordie has been experiencing problems with songs disappearing. These issues now seems to be fixed, but still verifying the fix. If you find anything strange, please email admin@chordie.com.


This Maniacâ??s in Love With You   Alice Cooper

 
 
 "This Maniac's In Love With You" by Alice Cooper
 From the album Trash
 T= use whammy bar
 tr= trill
 tap= finger tap
 
 Intro
 Guitar one
 E-|---------------------------------------------------------------------------|
 B-|---------------------------------------------------------------------------|
 G-|--------------------------------------11--11--11--9~~\---------------------|
 D-|---------------------------------------------------------------------------|
 A-|---------------------------------------------------------------------------|
 E-|---------------------------------------------------------------------------|
 | |
 |Guitar two |
 E-|---------------------------------------------------------------------------|
 B-|---------------------------------------------------------------------------|
 G-|------4--6---x--x---8--8--9----4--6----------------------------------------|
 D-|------4--6---x--x---8--8--9----4--6----------------------------------------|
 A-|------2--4---x--x---6--6--7----2--4----------------------------------------|
 E-|--x\--2--4---x--x---6--6--7----2--4----------------------------------------|
 w\Guitar two Intro riff
 E-|-------------------------------------------9--9----------------------------|
 B-|-----------------------9--12b--------------x-----12------9-----------------|
 G-|-----------------------------------------------------11-----9--11----------|
 D-|-------------------------------------------------------------------11------|
 A-|---------------------------------------------------------------------------|
 E-|---------------------------------------------------------------------------|
 E-|---------------------------------------------------------------------------|
 B-|---------------------------------------------------------------------------|
 G-|--11b--11b-----9--11--11b--14p12--(11)rb-----------------------------------|
 D-|------------------------------------------11tr14\--------------------------|
 A-|---------------------------------------------------------------------------|
 E-|---------------------------------------------------------------------------|
 w\Fill one second time
 1. "I used to be so in control."
 2. "My heart has been strapped in a straight jacket love."
 w\Guitar two Intro riff
 E-|---------------------------------------------------------------------------|
 B-|---------------------------------------------------------------------------|
 G-|--x--x--11----------------(11)\---9--9---4---------------------------------|
 D-|--x--x--11----------------(11)\---9--9---4---------------------------------|
 A-|--x--x---9----------------(-9)\---7--7---2---------------------------------|
 E-|----------------------------------7--7---2---------------------------------|
 
 Fill one
 E-|------------------------------------------------|
 B-|------------------------------------------------|
 G-|------------------------------------------------|
 D-|------------------------------------------------|
 A-|-----1b------------1-----1b------1-----------2--|
 E-|--2-------------------2-------------2--0--0-----|
 w\Fill one second time
 "But reality is losing its hold."
 "The therapy boy says it fits like a glove."
 w\Guitar two Intro riff
 E-|--x\-----------------------------------------------------------------------|
 B-|---------------------------------------------------------------------------|
 G-|-------x--x--11------------------------9--9---4------20b---------16--18p16-|
 D-|-------x--x--11------------------------9--9---4--------------18------------|
 A-|-------x--x---9------------------------7--7---2----------------------------|
 E-|---------------------------------------7--7---2----------------------------|
 "Now I don't know where to begin. Just look at the
 "I'm crossing the line in my brain. The line between
 E-|---------------------------------------------------------------------------|
 B-|---------------------------------------------------------------------------|
 G-|------18-------------------------------------------------------------------|
 D-|--18------18\--------------------------------------------------------------|
 A-|----------------------7------------------6--7--9--------------7------------|
 E-|-------------------------4----5----7-------------------------------4--5----|
 "state that I'm in. My mind is in total decay."
 "pleasure and pain. It takes all I've got to survive."
 E-|---------------------------------------------------------------------------|
 B-|---------------------------------------------------------------------------|
 G-|---------------------------------------------------------------------------|
 D-|---------------------------------------------------------------------------|
 A-|--------6----7---9---------------10-------------9--10--12------------------|
 E-|--7-----------------------------------7--8--10-----------------------------|
 "I'm coming to take you away."
 "This madness will eat me alive."
 [9~~]= play second time
 E-|---------------------------------------------------------------------------|
 B-|---------------------------------------------------------------------------|
 G-|---------------------------------[9~~]-------------------------------------|
 D-|------5--5------------------T----------------------------------------------|
 A-|-------------3--5----5---5--7\---------------------------------------------|
 E-|---------------------------------------------------------------------------|
 Chorus
 "There's nothing more that I can do. (This maniac's in love with you.)
 Your biggest fear has just come true. (This maniac's in love with you.)
 
 Nothing more that I can do. (This maniac's in love with
 E-|---------9-----------------------------------------------------------------|
 B-|--12b----9-----------------------------------------------------------------|
 G-|--11b---------11p9---------------------------------------------------------|
 D-|--------------------11--9----------9---------------------------------------|
 A-|---------------------------10--11-----11--9--7--------T--------------------|
 E-|------------------------------------------------9--7--x\-------------------|
 you.) Your biggest fear has just come true. 
 E-|-------------------9-------------------------------------------------------|
 B-|------------12b----9-------------------------------------------------------|
 G-|------------11b---------11p9-----------------------------------------------|
 D-|------------------------------11--9----------9-----------------------------|
 A-|-------------------------------------10--11-----11--9--7-------------------|
 E-|----------------------------------------------------------9--7--x\---------|
 (This maniac, this maniac.)"
 
 Solo
 E-|---------------------------------------------------------------------------|
 B-|---------------------------------------------------------------------------|
 G-|---------------------------------------------------------------------------|
 D-|---------------------------------------------------------------------------|
 A-|---------------------------------------------------6~~---------------------|
 E-|--4~~------------6~~-------------7~~---------------------------------------|
 w\Guitar two intro riff throughout
 Lead guitar one
 E-|---------------------------------------------------------------------------|
 B-|---------------------------------------------------------------------------|
 G-|9--9--9------9--9--9------9------11b---9--11-------------------------------|
 D-|---------11-----------11-----11---------------11---9--11--9----------------|
 A-|--------------------------------------------------------------11--9\7--9--7~~\|
 E-|---------------------------------------------------------------------------|
 | |
 |Lead guitar two |
 E-|---------------------------------------------------------------------------|
 B-|---------------------------------------------------------------------------|
 G-|---------------------------------------------------------------------------|
 D-|---------(11tr14)-------------11~~\)---------------11h14--9h11-------------|
 A-|----------------------------------------------------------------9--11--9--7b\|
 E-|---------------------------------------------------------------------------|
 E-|---------------------------------------------------------------------------|
 B-|---------------------------------------------------------------------------|
 G-|---------------------------------------------------------------------------|
 D-|------------------------------------------------------9------9--9b---------|
 A-|------------------------------------------------9h11-----11----------------|
 E-|--4~~------------6~~-------------7~~---------------------------------------|
 Lead guitar one
 E-|---------------------------------------------------------------------------|
 B-|---------------------------------------------------------------------------|
 G-|---------------------------------T---T---T----------------T----------------|
 D-|--/11--------------------/11p9--11--11--11---------9h11--11---9h11--11b----|
 A-|---------------------------------------------------------------------------|
 E-|---------------------------------------------------------------------------|
 | |
 |Lead guitar two |
 E-|----------------------------------------9----------------------------------|
 B-|-----T-------------tap---tap---------------12p9--T-------------------------|
 G-|-----8/------------16p8--16~~--------------------12---12p11p9--11--11--9\--|
 D-|--6------------------------------------------------------------------------|
 A-|---------------------------------------------------------------------------|
 E-|---------------------------------------------------------------------------|
 Lead guitar one
 E-|---------------------------------------------------------------------------|
 B-|---------------------------------------------------------------------------|
 G-|---------------------------------------------------------------------------|
 D-|--(11)b-------9h11b----9h11----------T-------------------------------------|
 A-|-----------------------------9h11--/11~~~~~~~~~~~~~~~~~~~~~~~~~~~~~~/------|
 E-|---------------------------------------------------------------------------|
 | |
 |Lead guitar two |
 E-|---------------------------------------------------------------------------|
 B-|----------------------------------------------------------------T----------|
 G-|--------11--(9)rb------9\-----(11)rb-p9--11------9--9\8--11--9--8--8\------|
 D-|---/8---11-------------9\--------------------11----------------------------|
 A-|---------------------------------------------------------------------------|
 E-|---------------------------------------------------------------------------|
 Lead guitar one
 E-|---------------------------------------------------------------------------|
 B-|--------------------4-----5p4-----5p4--------------------------------------|
 G-|--6--4--------4-----4----------6------6-----9h13p9\8-----------------------|
 D-|--------6--------6-----6-------------------------------9h13p9\6\1~~--------|
 A-|-----------7---------------------------------------------------------------|
 E-|---------------------------------------------------------------------------|
 | |
 |Lead guitar two tap tap tap tap tap tap tap |
 E-|--------------------------------------------24--24p9--24--24--24--24--24p9-/23b|
 B-|---------------------------------------------------------------------------|
 G-|--------------------------------------18-----------------------------------|
 D-|--------------/18b--------/20b---------------------------------------------|
 A-|---------------------------------------------------------------------------|
 E-|---------------------------------------------------------------------------|
 Lead guitar one
 E-|----------------------12h14h16p14p12h14h16p14p12--------------12h14h16-----|
 B-|--12h14h16p14p12h14h16--------------------------16p14p12h14h16-------------|
 G-|---------------------------------------------------------------------------|
 D-|---------------------------------------------------------------------------|
 A-|---------------------------------------------------------------------------|
 E-|---------------------------------------------------------------------------|
 | |
 |Lead guitar two |
 E-|----------------------21~~-------------------------------------------------|
 B-|---------------------------------------------------------------------------|
 G-|---------------------------------------------------------------------------|
 D-|---------------------------------------------------------------------------|
 A-|---------------------------------------------------------------------------|
 E-|---------------------------------------------------------------------------|
 Lead guitar one
 E-|--12h14h16p14p12--------------12h14h16-12h14h16-14b~~----------------------|
 B-|----------------16p14p12h14h16---------------------------------------------|
 G-|---------------------------------------------------------------------------|
 D-|---------------------------------------------------------------------------|
 A-|---------------------------------------------------------------------------|
 E-|---------------------------------------------------------------------------|
 | |
 |Lead guitar two |
 E-|----------------24----24----24---24---24---24---21\------------------------|
 B-|---------------------------------------------------------------------------|
 G-|---------------------------------------------------------------------------|
 D-|---------------------------------------------------------------------------|
 A-|---------------------------------------------------------------------------|
 E-|---------------------------------------------------------------------------|
 Repeat Bridge and Chorus till fade


Important: The song above is NOT stored on the Chordie server. The original song is hosted at chordiearchive.chordie.com. Chordie works as a search engine and provides on-the-fly formatting. Chordie does not index songs against artists'/composers' will. To remove this song please click here.

This song is displayed as text-only. Transposing and tuning is only available for chordpro-songs.
Rate #1 of 1 versions

Login - add to songbook

SHARE PAGE  




You need to log in to post comments