Guitar Tabs, Chords and Lyrics
Major upgrade!! After one year development the new version of Chordie is now online! Please give feedback.


The Other   John Frusciante

 
 
 [***********] 
 [ The Other ] 
 [***********] 
 
 by John Frusciante 
 from "Smile from the streets you hold" 
 
 Transcribed by Thatyou 
 
 Each word in sin Day and dancers strum Together one by one 
 -|---------------------------------------------------------------------------- 
 -|---------------------------------------------------------------------------- 
 -|--------------------------------7-9h7--------------------------------------- 
 -|------------------9-9-9-9------------------9-9-9-9---------------9--9------- 
 -|------9----9-7-7------------10-----------7------------9----9---7--7--7------ 
 -|-7-7-----------------------------------0------------7----7------------------ 
 
 The past and 
 Piece of matter ya love future been One and the other In the 
 other 
 -|---------------------------------------------------------------------------- 
 -|---------------------------------------------------------------------------- 
 -|----7-9----------------------------------------------7-9h7------------------ 
 -|--------------9--------------------9-9-9---------------------------9-------- 
 -|-10---------7------------9----7-7---------------10-------10----------9-9---- 
 -|----------0----------7-7--------------------------------------0------------- 
 
 
 Past and flow (mumbling) and the other Why can't this be all right one or 
 in 
 I gotta beat on me baaaah the 
 other 
 -|---------------------------------------------------------------------------- 
 -|--------------------7----------------7-------------------------------------- 
 -|------------------7--7-------------7---7------------------------------------ 
 -|------------9--------------9----------------9---------------9-9------------- 
 -|---9-7----------10------7------10--------7------------9-9-7-----7----------- 
 -|-7-------0------------------------------------------7----------------------- 
 
 Flick on my back, one do learn 
 -|---------------------------------------------------------------------------- 
 -|---------------------------------------------------------------------------- 
 -|----7-9h7-------------------7-9h7------------------------------------------- 
 -|----------------9-----------------------9----------------------------------- 
 -|-10--------7-7----7-7----10--------7-7-------------------------------------- 
 -|---------------------------------------------------------------------------- 
 
 3x The end 
 -|-----------------------------|----------------------|----------------------- 
 -|-----------------------------|----------------------|----------------------- 
 -|-----------------------------|----7-9h7-----9--9----|----7------------------ 
 -|-------------------9---9--9--|------------7--7---7--|----------------------- 
 -|------9---7---7-7----7--7--7-|-10-------------------|-10---7---------------- 


Important: The song above is NOT stored on the Chordie server. The original song is hosted at chordiearchive.chordie.com. Chordie works as a search engine and provides on-the-fly formatting. Chordie does not index songs against artists'/composers' will. To remove this song please click here.

This song is displayed as text-only. Transposing and tuning is only available for chordpro-songs.
Rate #1 of 1 versions

Jango Player

Login - add to songbook

SHARE PAGE  



You need to log in to post comments