Guitar Tabs, Chords and Lyrics
Server problems seems to be fixed. Chordie has been experiencing problems with songs disappearing. These issues now seems to be fixed, but still verifying the fix. If you find anything strange, please email admin@chordie.com.


Slide Away  Oasis



 
 ---------------------------

 
 e----------!--------3--0-----3-----------0----

 
 B----------!--------1----1-0---0-------1------

 
 G---5h7^^^-!-----0--0----------------0--------

 
 D----------!---2-------------------3---------- *means strum this slowly

 
 A----------!-0-------------------------------- 

 
 E----------!----------------------------------

 
 e-------3--0-----3----------0--------

 
 B-------1----1-0---0------1----------

 
 G-------0---------------0------------

 
 D-------2-------------3--------------

 
 A--0---------------------------------

 
 E------------------------------------

[Am7] [G] [F] [Am7] [G] [F]  
 
 e------------------------------------------------------
 B------------------------------------------------------
 G---7b9----7b9r7-5-----------------5-5-----------------
 D------------------7-----------5h7-----7----------7----
 A--------------------------5h7---------------6p5----0--
 E------------------------------------------------------

Verse
[-----] [Am7]Slide away - and [G]give it all you've [F]got
[Am7]My today - [G]fell in from the [F]top
[Am7]I dream of you - and [G]all the things you [F]say
[Am7]I wonder where you are now[G] [F]
Hold me down - all the world's asleep
I need you now - you've knocked me off my feet
I dream of you - we talk of growing old
But you said please don't!
Pre-chorus
 
 ----------

[G2]Slide in, ba[F2]by - tog[G2]ether we'll fly[F2]
[G2]I've tried pray[F2]ing - and I [G]know just what you're saying to [G7]me
Chorus
 
 ------

Now that you're [C]mine,
we'll find a [G]way
of chasing the [Fmaj7]sun
Am7Let me be the one
Who shines with [G]you
In the m[D7]orning when you don't know what to [F2]do
Two of a [C]kind
We'll find a [G]way
To do what we've [Fmaj7]done
Let me be the [Am7]one that shines with [G]you
And we can slide awa[F2]y [D/F#] slide aw[F2]ay[D/F#]
A[G]wayyyyyyyyyy[E]yyyyy
Guitar Solo
 
 -----------

[Am7] [G] [F] [Am7] [G] [F] [Am7]  
 
 e---------5-------------------------------8--8h10p8-----------------
 B------------5-----------------------8h10-----------10--8--10--8h10-
 G-7b9-----------7--5--5h7--5----------------------------------------
 D----------------------------5h7------------------------------------
 A-------------------------------------------------------------------
 E-------------------------------------------------------------------

[G] [F] [Am7] [G] [F] [G] [F] [G]  
 
 e-------------------------------------------------------------------
 B-------------------------------------------------------------------
 G--7b9--b9r7--5--7p5----------------------19b21--19b21r19--17-------
 D--------------------7--5--5h7------7--------------------------19---
 A-------------------------------6b5----0----------------------------
 E-------------------------------------------------------------------

[F] [G] [F] [G]  
 
 e------------------------------------------------------------------
 B------------------------------------------------------------------
 G-------------17--19--17-19b21-19b21-b21r19-17---------------------
 D-------17h19----------------------------------19--------17h19-17--
 A-17h19--------------------------------------------17h19-----------
 E------------------------------------------------------------------

[G7]  
 
 e-------------------------
 B-------------------------
 G-------------------------
 D-------------------------
 A--19--17-----------------
 E----------20--17--15h17--

At the end of the song, where Liam's going "slide away" over and over,
the chords alternate from F2 to D/F# with the below guitar fill (as well
as some variations of it) until the song ends.
[F2] [D/F#]  
 
 e------------------------------------
 B------------------------------------
 G--7b9--b9r7--5-------------5--7--5--
 D----------------7------5h7----------
 A-------------------5h7--------------
 E------------------------------------


Important: The song above is NOT stored on the Chordie server. The original song is hosted at chordiearchive.chordie.com. Chordie works as a search engine and provides on-the-fly formatting. Chordie does not index songs against artists'/composers' will. To remove this song please click here.

Text color:
Chord color:
Chord grids: 
Font size:    
Page size: 

Am7 C D/F# D7 E F F2 Fmaj7 G G2 G7
Rate #13 of 20 versions

Jango Player

Login - add to songbook

SHARE PAGE  



You need to log in to post comments