Guitar Tabs, Chords and Lyrics
Update 25:10. 13:00. Site is back up running again. Songbooks are recovered. Woring on getting search back up..


I Donâ??t Know   Ozzy Osbourne

 
 PM--------------------| PM--------------------|
 |------------||----------------------------|------------------------------|
 |------------||----------------------------|------------------------------|
 |------------||-2--------------------------|--4---------------------------|
 |------------||-2--------------------------|--4---------------------------|
 |------------||-0--0-x-0-0-0-0-0-0-0-0-0-0-|-(x)--0-0-0-0-0-0-0-0-0-x-0-0-|
 |-----15\----||----------------------------|------------------------------|
 PM--------| PM--------------------|
 |----------------------------|-3---------------|-----------------------------|
 |----------------------------|-3----3----------|-----------------------------|
 |--5-------------------------|-0----2----------|-2---------------------------|
 |--5-------------------------|-0----0----------|-2---------------------------|
 |-(x)--0-0-0-x-0-0-0-0-------|------0----------|-0--0-0-0-0-0-0-0-0-0-0-0-0--|
 |----------------------/19\--|-3-------3b3.5p0-|-----------------------------|
 PM--------------------| PM------------|
 |------------------------------|--------------------------|
 |------------------------------|--------------------------|
 |--4---------------------------|--5-----------------------|
 |--4---------------------------|--5-----------------------|
 |-(x)--0-0-0-0-0-0-0-0-0-0-0-0-|-(0)--0-0-0-0-0-0-0-0-x\--|
 |------------------------------|----------------------x\--|
 |-----------------------------------------||
 |-------1p0h1p0h1p0-----------------------||
 |-----x-------------2p0h2p0---------------||
 |---x-----------------------2p0-----------||
 |-x-----------------------------3p0-------||
 |-----------------------------------3b4p0-||

 


 1st Verse


 

 
 PM--------------------|
 |----------------------------|
 |----------------------------|
 |-2--------------------------|
 |-2--------------------------|
 |-0--0-x-0-0-0-0-0-0-0-0-0-0-|
 |----------------------------|
 PM--------------------| PM----|
 |------------------------------|----------------------|
 |------------------------------|----------------------|
 |--4---------------------------|--5-------------------|
 |--4---------------------------|--5-------------------|
 |-(x)--0-0-0-0-0-0-0-0-0-x-0-0-|-(x)--0-0-0-x---------|
 |------------------------------|--------------/17\----|
 ~~~~~~~~~ PM--------------------|
 |-3-------------|---------------------|------------------------------|
 |-3----3--------|---------------------|------------------------------|
 |-0----2--------|-2-[2]-([2])---------|--4---------------------------|
 |-0----0--------|-2-------------------|--4---------------------------|
 |------0--------|-0-------------------|-(x)--0-0-0-0-0-0-0-0-0-0-0-0-|
 |-3-------3b4p0-|----------------18\--|------------------------------|
 PM------------| PM--------------------|
 |--------------------------|-------------------|-----------------------------|
 |--------------------------|---------<7>--<7>--|-----------------------------|
 |--5-----------------------|-0-------<7>--<7>--|-2---------------------------|
 |--5-----------------------|-0---<7>-----------|-2---------------------------|
 |-(0)--0-0-0-0-0-0-0-0-x\--|-------------------|-0--0-x-0-0-0-0-0-0-0-0-0-0--|
 |----------------------x\--|-3-----------------|-----------------------------|
 PM--------------------| PM--------|
 |------------------------------|----------------------------|-3--------------|
 |------------------------------|----------------------------|-3----3---------|
 |--4---------------------------|--5-------------------------|-0----2---------|
 |--4---------------------------|--5-------------------------|-0----0---------|
 |-(x)--0-0-0-0-0-0-0-0-0-x-0-0-|-(x)--0-0-0-x-0-0-0-0-------|------0---------|
 |------------------------------|----------------------/19\--|-3-------3b4p0--|

 


 \0.5/


 

 
 PM--------------------|
 |-------------------------------|------------------------------|
 |-------------------------------|------------------------------|
 |-2--<5>--(<5>)-(<5>)---(<5>)---|--4---------------------------|
 |-2-----------------------------|--4---------------------------|
 |-0-----------------------------|-(x)--0-0-0-0-0-0-0-0-0-0-0-0-|
 |-----------------------------0-|------------------------------|
 PM--------|
 |-----------------------|-3---------||
 |-----------------------|-3----3----||
 |-5---------------------|-0----2----||
 |-5---------------------|-0----0----||
 |----0-0-0-0-0-x--------|------0----||
 |----------------19\--0-|-3---------||

 


 Pre-chorus


 PM PM| PM| PM


 

 
 |--------------|---3-----3------|---------------|---1----3-----------|
 |-0---0-(0)----|---1-----1------|-0---0-(0)-----|-1---1----3---------|
 |-0---0-(0)----|---0-----0------|-0---0-(0)-----|-0------------------|
 |-0---0-(0)----|-3---3-3--------|-0---0-(0)-----|-3------------------|
 |--------------|------------0---|---------------|--------------------|
 |-3---3-(3)----|-3---0--------3-|-3---3-(3)---3-|-3----------5b6r(5)-|
 PM------------|
 |---------------|-----------3-------|-1----0-----|---------------||
 |-3--3--(3)-----|-----6-----6-6-----|-1----1-----|---------------||
 |-0--0--(0)---0-|---5-----5---------|-2----0-----|-7-------5-----||
 |-0--0--(0)-----|-3-----3-----------|-3----2p==0-|-7-------5--5--||
 |---------------|-------------------|------------|-5-------3--5--||
 |-3--3--(3)-----|---------------/6\-|------------|-----(0)----3--||

 


 Chorus


 

 
 PM--------------------| PM--------------------|
 |----------------------------|----------------------------|
 |----------------------------|----------------------------|
 |-2--------------------------|-4--------------------------|
 |-2--------------------------|-4--------------------------|
 |-0--0-x-0-0-0-x-0-0-0-x-0-0-|----0-x-0-0-0-x-0-0-0-x-0-0-|
 |----------------------------|----------------------------|
 PM--------|
 |----------------------------|---------------------------------------|
 |----------------------------|-------------------------------------0-|
 |-5--------------------0h5p0-|-5p0h5p0h5p0h5p0h5p0h5p0h4p0h4p0h2p0-0-|
 |-5--------------------------|---------------------------------------|
 |----0-x-0-0-0-x-------------|---------------------------------------|
 |----------------17s8\-------|---------------------------------------|
 PM------------------| PM------------------| PM----|
 |--------------------------|--------------------------|----------------------|
 |--------------------------|--------------------------|----------------------|
 |-2------------------------|-4------------------------|-5--------------------|
 |-2--2---------------------|-4------------------------|-5--------------------|
 |-0--0-0-0-0-0-0-0-0-0-0-0-|----0-0-0-0-x-0-0-0-0-0-0-|----0-0-x-0-----------|
 |--------------------------|--------------------------|------------/19\---0--|

 


 2nd Verse


 

 
 PM--------------------|
 |-------------------||----------------------------|
 |-------------------||----------------------------|
 |-0---<7>-(<7>)-----||-2--------------------------|
 |-0---<7>-(<7>)-----||-2--------------------------|
 |-------------------||-0--0-x-0-0-0-0-0-0-0-0-0-0-|
 |-3---------------0-||----------------------------|
 PM--------------------|
 |-------------------------------|
 |-------------------------------|
 |--4----------------------------|
 |--4----------------------------|
 |-(x)--0-0-0-0-0-0-0-0-0-x-0-0--|
 |-------------------------------|
 PM--------|
 |----------------------------|-3---------------|
 |----------------------------|-3----3----------|
 |--5-------------------------|-0----2----------|
 |--5-------------------------|-0----0----------|
 |-(x)--0-0-0-x-0-0-0-0-------|------0----------|
 |----------------------/19\--|-3-------3b3.5p0-|
 ~~~ PM--------------------|
 |-------------------|----------------------------|
 |-------------------|----------------------------|
 |-2-----------------|-2--------------------------|
 |-2-----------------|-2--------------------------|
 |-0-----------------|-0--0-0-0-0-0-0-0-0-0-0-0-0-|
 |----3--(3)b5r(3)-0-|----------------------------|
 PM--------------------| PM----|
 |------------------------------|--------------------|-3----------------|
 |------------------------------|--------------------|-3----3-----------|
 |--4---------------------------|-5------------------|-0----2-----------|
 |--4---------------------------|-5------------------|-0----0-----------|
 |-(x)--0-0-0-0-0-0-0-0-0-0-0-0-|----0-0-0-0---------|------0-----------|
 |------------------------------|------------19\---0-|-3-------3b3.5p0--|
 PM--------------------| PM----|
 |----------------------------|----------------------|-3----------------|
 |----------------------------|----------------------|-3----3-----------|
 |-2--------------------------|--5-------------------|-0----2-----------|
 |-2--------------------------|--5-------------------|-0----0-----------|
 |-0--0-0-0-0-0-0-0-0-0-0-0-0-|-(0)--0-0-0-x---------|------0-----------|
 |----------------------------|--------------/17\----|-3-------3b3.5p0--|
 ~~~~~~~~~~ PM--------------------|
 |-------------------------------|------------------------------|
 |---------------/10-12-14-------|------------------------------|
 |-2--[2]--([2])-----------12\-0-|--4---------------------------|
 |-2-----------------------------|--4---------------------------|
 |-0-----------------------------|-(x)--0-0-0-0-0-0-0-0-0-0-0-0-|
 |-------------------------------|------------------------------|
 |--------------------------|-3---------||
 |--------------------------|-3----3----||
 |--5-----------------------|-0----2----||
 |--5-----------------------|-0----0----||
 |-(0)--0-0-0-0-0-0-0-0-x\--|------0----||
 |----------------------x\--|-3---------||

 


 Pre-chorus


 

 
 PM PM| PM| PM--------------|
 |-----------|---3-----3------|---------------|-------------3-----------|
 |-3--3------|---1-----1------|-0---0-(0)-----|-----6---6-----6p3p0-----|
 |-0--0------|---0-----0------|-0---0-(0)-----|---5-------5-------------|
 |-0--0------|-3---3-3--------|-0---0-(0)-----|-3-----3-----------------|
 |-----------|------------0---|---------------|-------------------------|
 |-3--3------|-3---0--------3-|-3---3-(3)---3-|---------------------/1--|
 |---------------|---------3-------|-1----0-----|---------------||
 |-3--3--(3)-----|-----6-----6-----|-1----1-----|---------------||
 |-0--0--(0)---0-|---5---5---------|-2----0-----|-7-------5-----||
 |-0--0--(0)-----|-3---------------|-3----2p==0-|-7-------5--5--||
 |---------------|-----------------|------------|-5-------3--5--||
 |-3--3--(3)-----|-------------6-5-|------------|-----(0)----3--||

 


 PM| ~~~~~~ PM|


 

 
 |--------------------|----------------|--------------------|----------------|
 |---------7-(7)------|----------------|--------------------|----------------|
 |-----7b8-7-(7)--0-0-|-(0)-----5------|-----7b8-7-(7)----0-|-(0)-----5------|
 |-----7b8-7-(7)----0-|-(0)-----5--5---|-----7b8-7-(7)----0-|-(0)-----5------|
 |-0-0----------------|-------0-3--5---|-0-0------------0---|-------0-3------|
 |--------------------|------------3p0-|--------------------|------------3p0-|

 


 PM| ~~~~~~ ~~~~~~~~~


 

 
 |--------------------|---------------|--------------|----------------||
 |--------------------|---------------|--------------|----------------||
 |-----7b8-7-(7)----0-|-(0)----5------|-2------------|----------------||
 |-2-0-7b8-7-(7)----0-|-(0)----5------|-2------------|----------------||
 |-0-0------------0---|--------3------|-0------------|----------------||
 |------------------3-|-(3)-------3p0-|-----3-5-3----|-2---0-1-1-1-0--||

 


 Bridge


 [2/2]  

 
 |-------------|--------2b3-(2)-----|--------3-(3)------|-------------------|
 |-3----3h5-3--|--------------------|--------------3----|------3-3----------|
 |-2-----------|---(0)-----------2--|----(0)---------0--|---2------5s4-(2)--|
 |-0-----------|--------------------|-------------------|---3---------------|
 |-------------|-3------------------|-2-----------------|-------------------|
 |-------------|--------------------|-------------------|-1-----------------|
 |---------------2---|------2-(2)------|-------3-(3)-------|---3-----3--3s5-||
 |----3---3h=5-------|------------3----|-----3-------3---3-|----------------||
 |------2-2-(2)-(2)--|---0-----------2-|---0-----------0---|-------2--------||
 |-0------0-(0)-(0)--|-----------------|-------------------|-3---3----------||
 |-------------------|-3---------------|-2-----------------|----------------||
 |-------------------|-----------------|-------------------|----------------||
 |------------2---|------2p0------|---------3-(3)------|
 |----3---3h5-----|----------3----|---------------3----|
 |------2---------|---0--------2--|---(0)-0------------|
 |-0------------0-|---------------|-----------------0--|
 |----------------|-3-------------|-2------------------|
 |----------------|---------------|--------------------|
 |----------------------------------|
 |----------------------------------|
 |-10h12p10-------------------------|
 |-10-------10h12p10-10h12p10-------|
 |----------------------------12s9--|
 |----------------------------------|
 |------------------|----------------------|-8p7----7s10-----|-5h6p5---5-5h6p5--|
 |-------7h8p7-8s10-|-(10)--(10)-----[10]--|--------8------8-|------------------|
 |-------7h9p7------|----------------------|------7------7---|-------5---5------|
 |-----7------------|-------------7--------|-----------------|------------------|
 |-9----------------|----------------------|-----------------|------------------|
 |------------------|----------------------|-----------------|------------------|
 |----------0-----|---------------------------|
 |----3---3-----3-|---------------------------|
 |------2---------|---------------------------|
 |-0----------0---|----<3>-<4>-(<4>)--<5>-<7>-|
 |----------------|-3-------------------------|
 |----------------|---------------------------|
 |-------3-(3)------|-----------------|
 |-----0--------3---|-----------------|
 |---0------------2-|-----------------|
 |------------------|---------3h5-3s2-|
 |-2----------------|-------3---------|
 |------------------|-1-3s5-----------|
 |--------------|------------------|---7s5-3-3-5p3--|---3-----3------|
 |----3--3s5s7--|-------8-(8)------|-3-3---0--------|---------1------|
 |----2--2------|-----5------------|-0--------------|-----2---2------|
 |-0------------|---5------------0-|----------------|-3-----3-3--2-0-|
 |--------------|-7------------3---|----------------|----------------|
 |--------------|------------------|----------------|----------------|

 


 PM---|


 

 
 |---------------|------------------|-1--------------|-1------------||
 |----3---3s5s7--|-------8-(8)--1---|-1------1-------|-3------------||
 |------2--------|-----5----------2-|-2------0---(0)-|-2------5-----||
 |-0-------------|---5--------------|-3--3-3-2p===0--|-0--0-0-5--0--||
 |---------------|-7----------------|----------------|--------3--0--||
 |---------------|------------------|----------------|--------------||

 


 Interlude


 [4/4] ~~~~~~


 

 
 |-------------------|----------------------|
 |-------------------|----------------------|
 |----7b8-7-(7)----5-|-(5)--0-7-------5b5.5-|
 |----7b8-7-(7)----5-|-(5)--0-7-------------|
 |-0-------------0---|----------5-6-7-------|
 |-------------------|----------------------|

 


 ~~~~~~


 

 
 |--------------------|-------------------|
 |--------------------|--------7----------|
 |-----7b8-7-(7)----5-|-(5)--0-7----------|
 |-----7b8-7-(7)----5-|-(5)--0-7-------7--|
 |-0-0------------0---|----------5-6-7----|
 |--------------------|-------------------|

 


 ~~~~~~ ~~~~~~~~


 

 
 |--------------------|------------------|
 |--------------------|------------------|
 |-----7b8-7-(7)----5-|-(5)--x-7-------5-|
 |-----7b8-7-(7)----5-|-(5)--x-7-------5-|
 |-0-0------------0---|----------5-6-7---|
 |--------------------|------------------|

 


 ~~~~~~


 

 
 |--------------------|------------------||
 |--------------------|-----------18b20==||
 |-----7b8-7-(7)--0-0-|-(0)--------------||
 |-----7b8-7-(7)--0-0-|-(0)--------------||
 |-0-0----------------|------------------||
 |--------------------|------------------||

 


 Guitar solo


 ~~~~~~~~~~~


 

 
 |-------------------|-15-------------------15-------------------------------|
 |-(18)r--18b20------|----18-15-------15-15----18p15----15-------------------|
 |-------------------|----------17b19----------------18----18-15-17-15-------|
 |-------------------|-------------------------------------------------17-15-|
 |-------------------|-------------------------------------------------------|
 |-------------------|-------------------------------------------------------|

 


 ~~~~ ~~~~


 

 
 |-----------17b19==(17)---17r|=(17)p15------------------------|
 |----------------------------|---------18p15-17b18-(17)--0-13-|
 |-17b19-15-------------------|--------------------------------|
 |----------------------------|--------------------------------|
 |----------------------------|--------------------------------|
 |----------------------------|--------------------------------|

 


 T T T T T T T T T T T T


 

 
 |-----------------------------------------------------------------------------------------|
 |-(13)-16p13-16p13-16b18=p13-16p13-16p13-16p13-16p13-16p13-16p13-16p13-16p13-(13)-16p13---|
 |-----------------------------------------------------------------------------------------|
 |-----------------------------------------------------------------------------------------|
 |-----------------------------------------------------------------------------------------|
 |-----------------------------------------------------------------------------------------|

 


 T T


 

 
 |---------------------------------|
 |-(13)-16p13-16p(13)r-------------|
 |-----------------------------3p0h|
 |---------------------------------|
 |---------------------------------|
 |----------------------15\--0-----|

 


 ~~~~~~~~~~~~~


 

 
 |---------------------------------------------|-------------------------------|
 |---------------------------------------------|-----------------------17-17---|
 |-3p0h3p0h3p0h3p0h3p0h3p0h3p0h3p0h3p0h3p0h3p0h|=3p0h3p0h3p0h3s17-(17)---------|
 |---------------------------------------------|-------------------------------|
 |---------------------------------------------|-------------------------------|
 |---------------------------------------------|-----------------------------0-|
 |-----------------------------------------18-20-21-20-|
 |--------------------------------20p17s20-------------|
 |----------------------(15)-17-x----------------------|
 |----------------15-17--15----------------------------|
 |-------13h15s17--------------------------------------|
 |-13h15-----------------------------------------------|
 |-18-20-21-20-18-20-20-20-20s21s20h21p20p18----18--------|
 |-------------------------------------------20----20p18--|
 |--------------------------------------------------------|
 |--------------------------------------------------------|
 |--------------------------------------------------------|
 |--------------------------------------------------------|

 


 ~~~~~~~~~~~


 

 
 |-20b22--20b22--(20)-(0)-----------|------------------------------------------|
 |--------------------(0)-----15b18r|=(15)-(15)b18==(15)---(15)--(15)r(15)-x-0-|
 |------------------------(0)-------|------------------------------------------|
 |----------------------------------|------------------------------------------|
 |----------------------------------|------------------------------------------|
 |----------------------------------|------------------------------------------|
 PM-----------------------------------------|
 |-----------------------------------------------|
 |-11-10-------11-10-------11-10-------10-9------|
 |-------12-10-------12-10-------12-10------11-9-|
 |-----------------------------------------------|
 |-----------------------------------------------|
 |-----------------------------------------------|
 PM-------------------------|
 |----------------------------------|-------3-------------------------|
 |-9-8------7-6-----6-5-----4p3-----|-----3---6p3-4p3---3-------------|
 |-----10-8-----8-6-----7-5-----5p3-|-5b7-------------6---6p3-5p3---3-|
 |----------------------------------|-----------------------------5---|
 |----------------------------------|---------------------------------|
 |----------------------------------|---------------------------------|
 |---------------------------------------------||
 |---------15-18p15----15-17b19r(17)b19r(17)\--||
 |-5s17b19----------17----17b19r(17)b19r(17)\--||
 |---------------------------------------------||
 |---------------------------------------------||
 |---------------------------------------------||

 


 ~~~~~~


 

 
 |-------------------|------------------------------|
 |-------------------|---------1p0-1p0--------------|
 |----7b8-7-(7)----5-|-(5)-5-0---------2p0----------|
 |----7b8-7-(7)----5-|-(5)-5---------------2p0------|
 |-0-------------0---|-------------------------3p0--|
 |-------------------|------------------------------|

 


 ~~~~~~


 

 
 |-------------------|---------5-----------------------|
 |-------------------|-------5---8p5-6p5---5-----------|
 |----7b8-7-(7)----5-|-5-7b9-------------8---8p7p5b5.5-|
 |----7b8-7-(7)----5-|-5-------------------------------|
 |-0-------------0---|---------------------------------|
 |-------------------|---------------------------------|

 


 ~~~~


 

 
 |---------------------|----------17----20-20b22-(20)----|
 |---------------------|-------------17------------------|
 |----7b7.5-7-(7)--0-5-|-(5)h6s18------------------------|
 |----7b7.5-7-(7)----5-|-(5)-----------------------------|
 |-0-------------------|---------------------------------|
 |---------------------|---------------------------------|
 |------------------------|-------------------||
 |------------------7-----|-------------------||
 |-x\-0-7b7.5-7-(7)-7-0-0-|-(0)h2-----------2-||
 |-x\---7b7.5-7-(7)-7---0-|-(0)h2-----------2-||
 |-x\---------------------|-------------------||
 |------------------------|-------17s===3p0---||
 PM--------------------| PM| PM------------| PM----|
 |----------------------------|--------------------------|--------------------|
 |----------------------------|--------------------------|-8------------------|
 |----------------------------|-4------------------------|-5------------------|
 |----------------------------|-4------0-----------------|--------------------|
 |-0--0-0-0-0-0-0-0-0-0-0-0-0-|-0--0-0---0-0-0-0-0-0-0-0-|----0-0-0-0---------|
 |----------------------------|--------------------------|------------19\---0-|
 PM--------------------| PM--------------------|
 |-------------|----------------------------|-----------------------------|
 |-0----3------|----------------------------|-----------------------------|
 |-0----2------|-2--------------------------|-----------------------------|
 |-0----0------|-2--------------------------|-4---------------------------|
 |-------------|-0--0-0-0-0-0-0-0-0-0-0-0-0-|----0-0-0-0-0-0-0-0-0-0-0-0--|
 |-3-------3-0-|----------------------------|-----------------------------|
 PM------------|
 |------------------------20b22r|
 |------------------------------|
 |-5----------------------------|
 |-5----------------------------|
 |----0-0-0-0-0-0-0-0-0-0-------|
 |------------------------------|

 


 ~~~~


 

 
 |-(20)p17-20p17----17------------------------------------||
 |---------------20----20p17----17------------------------||
 |---------------------------19----19p17h19b21-(19)-(19)\-||
 |--------------------------------------------------------||
 |--------------------------------------------------------||
 |--------------------------------------------------------||

 


 3rd Verse


 

 
 PM--------------------| PM--------------------|
 |----------------------------|------------------------------|
 |----------------------------|------------------------------|
 |-2--------------------------|--4---------------------------|
 |-2--------------------------|--4---------------------------|
 |-0--0-x-0-0-0-0-0-0-0-0-0-0-|-(x)--0-0-0-0-0-0-0-0-0-x-0-0-|
 |----------------------------|------------------------------|
 PM--------|
 |------------------------------|
 |------------------------------|
 |--5---------------------------|
 |--5---------------------------|
 |-(x)--0-0-0-x-0-0-0-0---------|
 |----------------------/19\----|
 ~~~ PM--------------------|
 |--------------------|-----------------------|------------------------------|
 |----------<19>---17-|---------------x/------|------------------------------|
 |-0--------<19>---17-|----[2]--([2])-x/------|--4---------------------------|
 |-0---<19>-----------|-----------------------|--4---------------------------|
 |--------------------|-0---------------------|-(x)--0-0-0-0-0-0-0-0-0-0-0-0-|
 |-3------------------|------------------17\--|------------------------------|
 PM----| PM--------------------|
 |-----------------------|--------------|-----------------------------|
 |-----------------------|--------------|-----------------------------|
 |-5----------7b8r(7)\---|-0----------0-|-2---------------------------|
 |-5---------------------|-0----------0-|-2---------------------------|
 |----0-0-0-0------------|------[5]-----|-0--0-x-0-0-0-0-0-0-0-0-0-0--|
 |-----------------------|-3----------3-|-----------------------------|
 PM--------------------| PM--------|
 |------------------------------|----------------------------|-3----------------|
 |------------------------------|----------------------------|-3----3-----------|
 |--4---------------------------|--5-------------------------|-0----2-----------|
 |--4---------------------------|--5-------------------------|-0----0-----------|
 |-(x)--0-0-0-0-0-0-0-0-0-x-0-0-|-(x)--0-0-0-x-0-0-0-0-------|------0-----------|
 |------------------------------|----------------------/19\--|-3-------3b3.5p0--|

 


 \0.5___________


 

 
 |-------------------------|
 |-------------------------|
 |-2--<5>--(<5>)---(<5>)---|
 |-2-----------------------|
 |-0-----------------------|
 |-------------------------|
 PM--------------------| PM--------|
 |------------------------------|-----------------------|
 |------------------------------|-----------------------|
 |--4---------------------------|-5---------------------|
 |--4---------------------------|-5---------------------|
 |-(x)--0-0-0-0-0-0-0-0-0-0-0-0-|----0-0-0-0-0-x--------|
 |------------------------------|----------------19\--0-|

 


 Pre-chorus


 

 
 |-3---------||----------------|---------3--------|-----------------|
 |-3----3----||-0--(0)----(0)--|---6-----3--------|-3--(3)----(3)---|
 |-0----2----||-0--(0)----(0)--|-----5------------|-0--(0)----(0)-0-|
 |-0----0----||-0--(0)----(0)--|-3-----3----------|-0--(0)----(0)---|
 |------0----||----------------|------------------|-----------------|
 |-3---------||-3--(3)----(3)--|------------5b6-0-|-3--(3)----(3)---|

 


 Gtr II


 | | | |


 

 
 |--------3-----------|-----------|---3-----3-------|--------------|
 |-6--------6---------|-----------|-1-----1-----1---|-1-----(1)----|
 |-5--5---------------|-0---------|-2---2-2-----2---|-2------0-----|
 |-3----3-------------|-0-------0-|-3---3-----3---2-|-3---3--2p==0-|
 |--------------------|-----------|-----------------|--------------|
 |------------5b6r(5)-|-3---------|-----------------|--------------|
 |--------------|-----------*|
 |--------------|-----------*|
 |-7-----5--0---|-----------*|
 |-7-----5--0---|-7\--------*|
 |-5---0-3------|-7\--------*|
 |----------3p0-|-5\--------*|

 


 Tablature Legend


 

 
 ----------------

 


 h - hammer-on


 p - pull-off


 b - bend


 pb - pre-bend


 r - bend release (if no number after the r, then release immediately)


 /\ - slide into or out of (from/to "nowhere")


 s - legato slide


 S - shift slide


 <n> - natural harmonic


 [n] - artificial harmonic


 n(n) - tapped harmonic


 ~ - vibrato


 tr - trill


 T - tap


 TP - trem. picking


 PM - palm muting


 \n/ - tremolo bar dip; n = amount to dip


 \n - tremolo bar down


 n/ - tremolo bar up


 /n\ - tremolo bar inverted dip


 = - hold bend; also acts as connecting device for hammers/pulls


 <> - volume swell (louder/softer)


 x - on rhythm slash represents muted slash


 o - on rhythm slash represents single note slash


 Misc Legend


 

 
 -----------


Important: The song above is NOT stored on the Chordie server. The original song is hosted at chordiearchive.chordie.com. Chordie works as a search engine and provides on-the-fly formatting. Chordie does not index songs against artists'/composers' will. To remove this song please click here.

This song is displayed as text-only. Transposing and tuning is only available for chordpro-songs.
Rate #1 of 1 versions

Jango Player

Login - add to songbook

SHARE PAGE  




You need to log in to post comments