Guitar Tabs, Chords and Lyrics
Server problems seems to be fixed. Chordie has been experiencing problems with songs disappearing. These issues now seems to be fixed, but still verifying the fix. If you find anything strange, please email admin@chordie.com.


Drag the Waters   Pantera

 
 
 PANTERA - Drag The Waters
 Tabbed by TooTH-PiCK (tooth-pick@usa.net)
 
 Tune DOWN 1 1/2 steps
 
 % = Bend And Do stuff... Listen to cd...
 b = Bend
 . = Palm Mute (Right hand)
 
 *INTRO*
 |-------------------|-------------------|-------------------|-------------------|
 |-------------------|-------------------|-------------------|-------------------|
 |-------------------|-------------------|-------------------|---2b--0-2-0-------|
 |-------------------|-------------------|-------------------|-------------2-----|
 |-------------------|-------------------|-------------------|-------------------|
 |-1-0----0-1-0----0-|-1-0----0-1-0----0-|-1-0----0-1-0----0-|-0--------------5b-|
 .....
 |Fig. 1 End Fig. 1|
 |--------------------|------------------|-------------------|-------------------|
 |*-------------------|------------------|-------------------|------------------*|
 |--------------------|---2b--0-2-0------|-------------------|---2b--0-2-0-------|
 |--------------------|-------------2----|-------------------|-------------2-----|
 |*-3-2------3-2------|------------------|-3-2------3-2------|------------------*|
 |--1-0----0-1-0----0-|-0-------------5b-|-1-0----0-1-0----0-|-0-------------5b--|
 ..... .....
 
 *VERSE*
 Smack on the wrists is the words...
 |--------------------|-----------------|-----------------|---------------------|
 |*-------------------|-----------------|-----------------|---------------------|
 |--------------------|-----------------|-----------------|---------------------|
 |--------------------|-----------------|-----------------|---------------------|
 |*-3-2----X----X-X-X-|--X-X-X----X-X-X-|--X-X-X----X-X-X-|-----5~------7~------|
 |--1-0----X----X-X-X-|--X-X-X----X-X-X-|--X-X-X----X-X-X-|-3/5-----5/7-----8-7-|
 ..............................................
 
 |-------------------|-----------------|-----------------|-----------------------|
 |-------------------|-----------------|-----------------|----------------------*|
 |-------------------|-----------------|-----------------|-----------------------|
 |-------------------|-----------------|-----------------|-----------------------|
 |-3-2----X----X-X-X-|--X-X-X----X-X-X-|--X-X-X----X-X-X-|-----5~------7~--10-9-*|
 |-1-0----X----X-X-X-|--X-X-X----X-X-X-|--X-X-X----X-X-X-|-3/5-----5/7------8-7--|
 ..............................................
 
 *CHORUS*
 |------------------|-------------------|------------------|-------------------|
 |------------------|-------------------|------------------|-------------------|
 |---2b--0-2-0------|-------------------|---2b--0-2-0------|-------------------|
 |-------------2----|-------------------|-------------2----|-------------------|
 |------------------|-3-2------3-2------|------------------|-3-2------3-2------|
 |-X-------------5b-|-1-0----0-1-0----0-|-0-------------5b-|-1-0----0-1-0----0-|
 ..... ...
 
 |---------------------|---------------------|--------------------------------|
 |---------------------|---------------------|--------------------------------|
 |---2b--0-2-0---------|---------------------|--------------------------------|
 |---------------------|---------------------|--------------------------------|
 |-------------1-0-----|-----1-1-----3b------|---------1-1-----1b----1b-------|
 |-0----------------1b-|---3-----3-1-------1-|-(1)---3-----3-1-----------1----|
 ... ....... .......
 
 |-------------------------|----------------------------|------------------------|
 |-------------------------|----------------------------|------------------------|
 |-------------------------|----------------------------|------------------------|
 |-------------------------|----------------------------|------------------------|
 |---------1-1-----3b------|--------1-1-----3b---1~-----|---------3-3-----5b-----|
 |-(1)b--3-----3-1-------1-|-(1)--3-----3-1-----------3-|-(3)b--5-----5-3-------3|
 ....... ....... .......
 
 |------------------------------|-------------------------|------------------------|
 |------------------------------|-------------------------|------------------------|
 |------------------------------|-------------------------|------------------------|
 |------------------------------|-------------------------|-----------------5-7--8-|
 |---------3-3-----5b----3b-----|---------3-3-----5b------|---------3-3-----3-5--6-|
 |-(3)b--5-----5-3-------------3|-(3)b--5-----5-3-------3-|-(3)b--5-----5-3-3-5--6-|
 ....... ....... .......
 
 Drag the waters some more...
 |--------------------|------------------|-------------------|-------------------|
 |--------------------|------------------|-------------------|-------------------|
 |--------------------|---2b--0-2-0------|-------------------|---2b--0-2-0-------|
 |--------------------|-------------2----|-------------------|-------------2-----|
 |--3-2------3-2------|------------------|-3-2------3-2------|-------------------|
 |--1-0----0-1-0----0-|-0-------------5b-|-1-0----0-1-0----0-|-0-------------5b--|
 ..... .....
 
 |--------------------|------------------|-------------------|-------------------|
 |--------------------|------------------|-------------------|-------------------|
 |--------------------|---2b--0-2-0------|-------------------|---2b--0-2-0-------|
 |--------------------|-------------2----|-------------------|-------------2-----|
 |--3-2------3-2------|------------------|-3-2------3-2------|-------------------|
 |--1-0----0-1-0----0-|-0-------------5b-|-1-0----0-1-0----0-|-0-------------5b--|
 ..... .....
 
 *BREAK*
 |-----------------------|----------------------------------|-----------------------------|
 |--------15---15-----15-|----15----15----------------------|-------17p15p12--17-17p15p12-|
 |----x-x-14b----14b-----|-14----14----14-(14)p12-14~~(14)\-|-----x-----------------------|
 |----x-x----------------|----------------------------------|-----x-----------------------|
 |3-2-x-x----------------|----------------------------------|-3-2-x-----------------------|
 |1-0--------------------|----------------------------------|-1-0-------------------------|
 
 |----------------------------------------|-------------------|--------------------------|
 |-17-17p15p12-17-17p15p12-x-17p15p12-17b~|-------------------|--------------------------|
 |----------------------------------------|------2b-(2)--2--0-|-2p0----0-----------------|
 |----------------------------------------|-------------------|-----2--------------------|
 |----------------------------------------|-3-2---------------|--------------------------|
 |----------------------------------------|-1-0---------------|-----------5--(5)b--(5)~~-|
 
 |-------------------|------|
 |-------------------|------|
 |-------------------|------|
 |-------------------|------|
 |-3--2--------------|------|
 |-1--0--0--0--0--0--|------|
 .......
 
 *SOLO*
 
 |--------------------------------|----------------------------|---------------------------|
 |--------------------------------|-7--------------------------|-8---10-8----8------8--8---|
 |--------------------7h9-9---7-9-|---9-7---9---7-9-7b--(3)-/9-|---9------9~---9/12---10b--|
 |-----5---7--5--7/9--------9-----|-------9---9----------------|---------------------------|
 |-5h7---7------------------------|----------------------------|---------------------------|
 |--------------------------------|----------------------------|---------------------------|
 |-------------------------|-----------------|------------------------------------------|
 |-(8)\--------------------|-----------------|------------------------------------------|
 |(12)\----12----14--12-14-|-14%%%%%-(14)p12-|-14b--14b--(14)p12-14-14b--12~~-----(12)/-|
 |-------14--(14)--14------|-----------------|------------------------------------------|
 |-------------------------|-----------------|------------------------------------------|
 |-------------------------|-----------------|------------------------------------------|
 |
 |Gtr. 2
 |-------------------------|-----------------|-----------------------------------------|
 |-------------------------|-----------------|-----------------------------------------|
 |2b--0--2-0---------------|-----------------|-----------------------------------------|
 |-----------2-------------|-----------------|-----------------------------------------|
 |-------------------------|-----------------|-----------------------------------------|
 |--------------5b---------|-1--0------------|-----------------------------------------|
 
 ________________________________
 |-12--15--12--^------------*T------T------T----|-15b--------------(15)\-|
 |---15--15--15b---15~------19-15--20-15--19-15-|------------------------|
 |----------------------------------------------|------------------------|
 |----------------------------------------------|------------------------|
 |----------------------------------------------|------------------------|
 |----------------------------------------------|------------------------|
 |[Gtr. 2.] *Hold bend while tapping
 |----------------------------------------------|------------------------|
 |----------------------------------------------|------------------------|
 |----------------------------------------------|------2b--0-2-0---------|
 |----------------------------------------------|----------------2-------|
 |----------------------------------------------|------------------------|
 |----------------------------------------------|---------------------5b-|
 
 |-----12------------12-----------12------|------12-----------12----------12-----------12------|
 |-------15p12-15b~----15p12-15b----15p12-|--------15p12-15b----15p12-------15p12-15b----15p12-|
 |-/12------------------------------------|-14b----------------------14b-----------------------|
 |----------------------------------------|----------------------------------------------------|
 |----------------------------------------|----------------------------------------------------|
 |----------------------------------------|----------------------------------------------------|
 |[Gtr.2]
 |----------------------------------------|----------------------------------------------------|
 |----------------------------------------|----------------------------------------------------|
 |----------------------------------------|----------------------------------------------------|
 |----------------------------------------|----------------------------------------------------|
 |----------------------------------------|----------------------------------------------------|
 |-1--0----0---------0--------0----0------|----0-----------0---0-----------0--------0---0------|
 ....................................................................
 
 |-15b---------(15)~~~~~-|--------------------------|---15-17-18-19-19b-------|
 |-----------------------|------------------------10/17-------------------/17-|
 |-----------------------|--------------------------|-------------------------|
 |-----------------------|--------------------------|-------------------------|
 |-----------------------|--------------------------|-------------------------|
 |-----------------------|--------------------------|-------------------------|
 |[Gtr. 2]
 |-----------------------|--------------------------|-------------------------|
 |-----------------------|--------------------------|-------------------------|
 |-----------------------|---2b--0-2-0--------------|-------------------------|
 |-----------------------|-------------2------------|-------------------------|
 |-----------------------|-x------------------------|-------------------------|
 |--0--0--0-----0--0--0--|-x--------------5b--------|-1--0----0------0--0--0--|
 ........................
 
 |-15--17--18--19-(19)~------|-19--20--21--22--22b----22-22b-|----------(22)--|
 |---17--17--17----------/20-|---20--20--20--20--------------|----------------|
 |---------------------------|-------------------------------|----------------|
 |---------------------------|-------------------------------|----------------|
 |---------------------------|-------------------------------|----------------|
 |---------------------------|-------------------------------|----------------|
 |[Gtr. 2]
 |---------------------------|-------------------------------|----------------|
 |---------------------------|-------------------------------|----------------|
 |---------------------------|-------------------------------|-2b--0-2-0------|
 |---------------------------|-------------------------------|-----------2----|
 |---------------------------|-------------------------------|----------------|
 |---0--0--0------0--0--0----|-----0--0--0--------0--0---0---|--------------5b|
 
 Yeah Ha Drag the waters some more...
 |-22b~~~-----22b^^\--|------------------|-------------------|-------------------|
 |--------------------|------------------|-------------------|-------------------|
 |--------------------|------------------|-------------------|-------------------|
 |--------------------|------------------|-------------------|-------------------|
 |--------------------|------------------|-------------------|-------------------|
 |--------------------|------------------|-------------------|-------------------|
 |[Gtr. 2]
 |--------------------|------------------|-------------------|-------------------|
 |--------------------|------------------|-------------------|-------------------|
 |--------------------|---2b--0-2-0------|-------------------|---2b--0-2-0-------|
 |--------------------|-------------2----|-------------------|-------------2-----|
 |--3-2------3-2------|------------------|-3-2------3-2------|-------------------|
 |--1-0----0-1-0----0-|-0-------------5b-|-1-0----0-1-0----0-|-0-------------5b--|
 ..... .....
 _____________
 |--------------------|------------------|---^---------------|
 |--------------------|------------------|---^---------------|
 |--------------------|------------------|-7b^--7------7-(7)-|
 |--------------------|------------------|-------------------|
 |--------------------|------------------|-------------------|
 |--------------------|------------------|-------------------|
 |
 |--------------------|------------------|-------------------|
 |--------------------|------------------|-------------------|
 |--------------------|---2b--0-2-0------|-------------------|
 |--------------------|-------------2----|-------------------|
 |--3-2------3-2------|------------------|-3-2------3-2------|
 |--1-0----0-1-0----0-|-0-------------5b-|-1-0----0-1-0----0-|
 
 
 |-------------------|---------------------|------------------|
 |-------------------|---------------------|------------------|
 |--12-14-14b-14-14b-|14b-------(14)~~~----|--(14)~~~----(14)\|
 |-------------------|---------------------|------------------|
 |-------------------|---------------------|------------------|
 |-------------------|---------------------|------------------|
 |
 |-------------------|---------------------|------------------|
 |-------------------|---------------------|------------------|
 |----2b--0-2-0------|---------------------|---2b--0-2-0------|
 |--------------2----|---------------------|-------------2----|
 |-------------------|-3-2-------3-2-------|------------------|
 |-0---------------5-|-1-0---0-0-1-0---0-0-|-0-------------5b-|
 ... .......
 
 |------------------------|---------------15b|-----------15b--12-----|
 |------------------------|------------------|--------------------15b|
 |------------------------|------------------|-----------------------|
 |------------------------|------------------|-----------------------|
 |------------------------|------------------|-----------------------|
 |------------------------|------------------|-----------------------|
 |
 |------------------------|------------------|-----------------------|
 |------------------------|------------------|-----------------------|
 |------------------------|---2b--0-2-0------|-----------------------|
 |------------------------|-------------2----|-----------------------|
 |--3-2--------3-2--------|------------------|-3-2--------3-2--------|
 |--1-0-0--0-0-1-0-0--0-0-|-0-------------5b-|-1-0-0--0-0-1-0-0--0-0-|
 ...... .......... ...... ......
 |-------------------|-----------------------|-17b-15-17p15----------|
 |-(15)~~------------|-----------------------|--------------17-17----|
 |-------------------|-----------------------|--------------------14-|
 |-------------------|-----------------------|-----------------------|
 |-------------------|-----------------------|-----------------------|
 |-------------------|-----------------------|-----------------------|
 |
 |-------------------|-----------------------|-----------------------|
 |-------------------|-----------------------|-----------------------|
 |----2b--0-2-0------|-----------------------|---2b--0-2-0-----------|
 |--------------2----|-----------------------|-------------2---------|
 |-------------------|-3-2--------3-2--------|-----------------------|
 |-0---------------5-|-1-0-0--0-0-1-0-0--0-0-|-0-------------5-------|
 ...... ..........
 
 (lyric ad lib) ha huh ha huh
 |---------------|----------------|---------------|---------------|
 |---------------|----------------|---------------|---------------|
 |-(14)b~~~------|----------------|---------------|---------------|
 |---------------|----------------|---------------|---------------|
 |---------------|----------------|---------------|---------------|
 |---------------|----------------|---------------|---------------|
 |
 |---------------|----------------|---------------|---------------|
 |---------------|----------------|---------------|---------------|
 |---------------|----------------|---------------|---------------|
 |---------------|----------------|---------------|---------------|
 |---------------|------------x-x-|---------------|---------------|
 |-(5)*-(5)--(5)-|-(5)--------x-x-|-1-0--0-1-0--0-|-1-0--0-1-0--0-|
 *Use bar to raize each time
 
 |---------------|------------------|
 |---------------|------------------|
 |---------------|---2b--0-2-0------|
 |---------------|-------------2----|
 |---------------|------------------|
 |-1-0--0-1-0--0-|-0-------------5b-|
 
 *OUTRO*
 |--------------------|------------------|-------------------|-------------------|
 |--------------------|------------------|-------------------|-------------------|
 |--------------------|---2b--0-2-0------|-------------------|---2b--0-2-0-------|
 |--------------------|-------------2----|-------------------|-------------2-----|
 |--3-2------3-2------|------------------|-3-2------3-2------|-------------------|
 |--1-0----0-1-0----0-|-0-------------5b-|-1-0----0-1-0----0-|-0-------------5b--|
 ..... .....
 
 in with it out with it...
 |--------------------|------------------|--------------------|----------------|
 |--------------------|------------------|--------------------|----------------|
 |--------------------|---2b--0-2-0------|--------------------|----------------|
 |--------------------|-------------2----|--------------------|----------------|
 |--3-2------3-2------|------------------|-3-2------3-2-------|-5-7-8--7--8--9-|
 |--1-0----0-1-0----0-|-0-------------5b-|-1-0----0-1-0----0-0|-3-5-6--5--6--7-|
 ..... 
 
 |--------------------|------------------|--------------------|----------------|
 |--------------------|------------------|--------------------|----------------|
 |--------------------|---2b--0-2-0------|--------------------|----------------|
 |--------------------|-------------2----|--------------------|----------------|
 |--3-2------3-2------|------------------|-3-2------3-2-------|-5-7-8--7--8--9-|
 |--1-0----0-1-0----0-|-0-------------5b-|-1-0----0-1-0----0-0|-3-5-6--5--6--7-|
 ..... 
 
 |--------------------|------------------|--------------------|----------------|
 |--------------------|------------------|--------------------|----------------|
 |--------------------|---2b--0-2-0------|--------------------|----------------|
 |--------------------|-------------2----|--------------------|----------------|
 |--3-2------3-2------|------------------|-3-2------3-2-------|-5-7-8--7--8--9-|
 |--1-0----0-1-0----0-|-0-------------5b-|-1-0----0-1-0----0-0|-3-5-6--5--6--7-|
 ..... 
 
 |--------------------|------------------|-------------------|-------------------||
 |--------------------|------------------|-------------------|-------------------||
 |--------------------|---2b--0-2-0------|-------------------|---2b--0-2-0-------||
 |--------------------|-------------2----|-------------------|-------------2-----||
 |--3-2------3-2------|------------------|-3-2------3-2------|-------------------||
 |--1-0----0-1-0----0-|-0-------------5b-|-1-0----0-1-0----0-|-0-------------5b--||
 ..... .....
 
 DONE!!! This is all correct i think (unless i made a typo)... And it took me forever 
 to do so u better like it... But i know u will cause this song RULZ!!!
 
 Tabbed by: TooTH-PiCK (Eric Denny) (dglenn@prysm.net)
 
 -------------------------------------------------------------------
 Archived by: -=UMS=- http://members.tripod.com/~ums02/pantera


Important: The song above is NOT stored on the Chordie server. The original song is hosted at chordiearchive.chordie.com. Chordie works as a search engine and provides on-the-fly formatting. Chordie does not index songs against artists'/composers' will. To remove this song please click here.

This song is displayed as text-only. Transposing and tuning is only available for chordpro-songs.
Rate #1 of 1 versions

Login - add to songbook

SHARE PAGE  



You need to log in to post comments