Guitar Tabs, Chords and Lyrics
Update 25:10. 13:00. Site is back up running again. Songbooks are recovered. Woring on getting search back up..


Theresa√Ę??s Sound-World   Sonic Youth

 
 
 THERESA'S SOUND WORLD 
 Sonic Youth 
 Album: Dirty ('92) 
 Tabbed by Denial Guitar (DenialGtr@hotmail.com) 
 
 
 
 
 Intro 
 
 e|----------------|----------------| 
 B|---1------1-----|---1------1-----| 
 G|-----3------3---|-----3------3---| 
 D|----------------|----------------| 
 A|-3------3-------|-3------3-------| 
 E|----------------|----------------| 
 | (x8) 
 e|----------------|----------------| 
 B|---1---1---1---1|---1---1---1----| 
 G|-0---0---0---0--|-0---0---0-----0| 
 D|----------------|-------------1--| 
 A|----------------|----------------| 
 E|----------------|----------------| 
 
 
 Main riff 
 
 e|-------------------|-------------------|-------------------|-------------------| 
 B|-------4-----4-----|-------6-----6-----|-------1-----1-----|-------1-----1-----| 
 G|-------------------|-------------------|-------------------|-------------------| 
 D|---6-----6-----6---|---8-----8-----8---|---3-----3-----3---|---3-----3-----3---| (x2) 
 A|-6---6-----6-----6-|-8---8-----8-----8-|-3---3-----3-----3-|-3---3-----3-----3-| 
 E|-------------------|-------------------|-------------------|-------------------| 
 
 
 Verse 1 (the same as main riff but this lasts twice) 
 
 Light girl come walkin thru the corn, free 
 Light blue vibration thru the sea 
 I know I'd love her to breathe, again 
 Light cubes are talkin her down 
 
 
 Pre-chorus 1 (strum these chords) 
 
 e|------|------|-------|-------|------|------|------|------| 
 B|-4----|-6----|--8----|--8----|-4----|-6----|-1----|-1----| 
 G|-0----|-0----|--0----|--0----|-0----|-0----|-0----|-0----| 
 D|-6----|-8----|-10----|-10----|-6----|-8----|-3----|-3----| (x2) 
 A|-6----|-8----|-10----|-10----|-6----|-8----|-3----|-3----| 
 E|------|------|-------|-------|------|------|------|------| 
 
 I've been a wasted day, light spinning round a saint 
 Light colored wild sign, Theresa's talking the rain 
 
 
 Chorus 
 
 e|-----------------|-5-5b-3-5b-3~----| 
 B|-----------------|-----------------| 
 G|-----------------|-----------------| 
 D|-----------------|-----------------| 
 A|-----------------|-----------------| 
 E|-----------------|-----------------| 
 | (x2) 
 e|-----------------|-----------------| 
 B|-----------------|-----------------| 
 G|-5-5-5-5-5-5-5-5-|-5-5-5-5-5-5-5-5-| 
 D|-5-5-5-5-5-5-5-5-|-5-5-5-5-5-5-5-5-| 
 A|-3-3-3-3-3-3-3-3-|-3-3-3-3-3-3-3-3-| 
 E|-----------------|-----------------| 
 
 
 e|-------|-------|-------|-------|-------|-------|-------|-------|-------|-------| 
 B|-------|-------|-------|-------|-------|-------|-------|-------|-------|-------| 
 G|12-----|12-----|10-----|10-----|12-----|12-----|15-----|15-----|17-----|17-----| 
 D|---(x8)|---(x8)|---(x8)|---(x8)|---(x8)|---(x8)|---(x8)|---(x8)|---(x8)|---(x8)| 
 A|10-----|10-----|-8-----|-8-----|10-----|10-----|13-----|13-----|15-----|15-----| 
 E|-------|-------|-------|-------|-------|-------|-------|-------|-------|-------| 
 
 e|-------|-------|-------|-------|-------|-------|-------|-------| 
 B|-------|-------|-------|-------|-------|-------|-------|-------| 
 G|20-----|20-----|22-----|22-----|24-----|24-----|24-----|24-----| 
 D|---(x8)|---(x8)|---(x8)|---(x8)|---(x8)|---(x8)|---(x8)|---(x8)| 
 A|18-----|18-----|20-----|20-----|22-----|22-----|22-----|22-----| 
 E|-------|-------|-------|-------|-------|-------|-------|-------| 
 
 
 [Repeat intro] 
 
 
 Verse 2 (the same as 1) 
 
 Light girl be glowin thru town 
 Windows are thoughts in disdain 
 I know I'd love her to stay 
 Whispering signs are agreeing 
 
 
 Pre-chorus 2 (the same as 1) 
 
 Light talking gold in the rain 
 Lights vibing dark in the saint 
 A cat in gold goes alone 
 Theresa's sound for the king 
 
 


Important: The song above is NOT stored on the Chordie server. The original song is hosted at chordiearchive.chordie.com. Chordie works as a search engine and provides on-the-fly formatting. Chordie does not index songs against artists'/composers' will. To remove this song please click here.

This song is displayed as text-only. Transposing and tuning is only available for chordpro-songs.
Rate #1 of 1 versions

Login - add to songbook

SHARE PAGE  




You need to log in to post comments