Guitar Tabs, Chords and Lyrics
Major upgrade!! After one year development the new version of Chordie is now online! Please give feedback.


Eyes of Wrath   Testament

 
 
 Band: Testament 
 Album: The Gathering 
 Song: Eyes Of Wrath 
 
 Transcribed By: Loker69 
 Email: philosopher69@poczta.onet.pl 
 
 
 . - palm mute / - slide up to 
 \ - slide down to ~ - vibrato 
 h - hammer on b - Bend 
 p - pull off Suffixes for bend 
 t - tap f - full bend h - half bend 
 ph - pinched harmonic q - quarter bend t - tap bend 
 * - see comment ^ - Hold bend r release bend 
 x - Stuccatto ~ - vibrato bend 
 , - slight palm mute () - ghost note, sustained note 
 " - tremolo note 
 ah - artifical harmonics <> - Trill 
 
 Tunning C#-F#-B-E-G#-C# 
 
 
 
 [the first riff played backwords here] 
 
 then 
 
 Riff A ( clean ) 
 |----------------------------------------------------| 
 |----------------------------------------------------| 
 |-10-10-9-9----10-10-9-9----10-9----10-10-9-9--------| 
 |------------------------------------------------9---| 
 |----------------------------------------------------| 
 |----------------------------------------------------| 
 
 
 
 
 Riff A1 ( clean ) 
 |----------------------------------------------------| 
 |----------------------------------------------------| 
 |-9----10-10-9-9----10-10-9-9----10-9----10-9--------| 
 |------------------------------------------------9---| 
 |----------------------------------------------------| 
 |----------------------------------------------------| 
 
 
 
 
 Riff B 
 |----------| 
 |----------| 
 |----------| 
 |-7-9-10-9-| 
 
 |-5-7-8 -7-| 
 |----------| 
 
 
 
 
 Riff B1 play 2 times 
 |---|--------------------------------------------------| 
 |---|--------------------------------------------------| 
 |---|--------------------------------------------------| 
 |-3-|2-------2-------2-----3-3-3-2-------2-------------| 
 |-3-|2-------2-------2-----3-3-3-2-------2-----7-6-3-6-| 
 |-1-|0-0-000-0-0-000-0-000-1-1-1-0-0-000-0-000-5-4-1-4-| 
 ^ . ... . ... ... . ... ... 
 | 
 [play only at first time] 
 
 
 
 
 Riff C 
 |--------------------------| 
 |--------------------------| 
 |--------------------------| 
 |--------------------------| 
 |-3-2--3-3-2--3-3-7--7-6-7-| 
 |-1-0--1-1-0--1-1-5--5-4-5-| 
 . . . . . . . . 
 
 
 
 Riff C1 
 |---------------------| 
 |---------------------| 
 |---------------------| 
 |---------------------| 
 |-3-2--3-3-2--7-6-3-6-| 
 |-1-0--1-1-0--5-4-1-4-| 
 . . . . . 
 
 repeat ( C + C1 ) 
 
 
 Riff C2 
 |------------------------------------------------------| 
 |------------------------------------------------------| 
 |------------------------------------------------------| 
 |-3-2--3-3-2--3-3-7--7--6--7---3-2--3-3-2--------------| 
 |-3-2--3-3-2--3-3-7--7--6--7---3-2--3-3-2--------------| 
 |-1-0--1-1-0--1-1-5--5--4--5---1-0--1-1-0--5~-4~-1~-4~-| 
 
 
 repeat ( C + C1 ) 
 
 
 Riff D (gtr.1) 
 |---------------------------------------| 
 |---12-----12-----12---12-----12-----12-| 
 |------9------9-----------9------9------| 
 |-9------9------9----9------9------9----| 
 |---------------------------------------| 
 |---------------------------------------| 
 
 gtr.2 plays A1 
 
 
 
 Riff D1 
 |------------| 
 |------------| 
 |------------| 
 |-7-9-10-14\-| 
 |-5-7-8 -12\-| 
 |------------| 
 
 
 repeat ( C + C1 ) x2 
 
 repeat C2 
 
 repeat ( C + C1 ) 
 
 
 Riff E 
 |----------| 
 |----------| 
 |----------| 
 |-4"-3"-2"-| 
 |-2"-1"-0"-| 
 |----------| 
 
 repeat C 
 
 repeat E 
 
 repeat ( C + C1 ) 
 
 
 Riff B2 play 2 times 
 |--------------------------------------------------| 
 |--------------------------------------------------| 
 |--------------------------------------------------| 
 |2-------2-------2-----------2-------2-------------| 
 |2-------2-------2-----7-6-7-2-------2-----7-6-3-6-| 
 |0-0-000-0-0-000-0-000-5-4-5-0-0-000-0-000-5-4-1-4-| 
 . ... . ... ... . ... ... 
 
 
 
 Riff E2 
 |----------------------------| 
 |----------------------------| 
 |----------------------------| 
 |----------------------3-2-3-| 
 |-4-44-3-4-44-3-4-44-3-1-0-1-| 
 |-2-22-1-2-22-1-2-22-1-------| 
 . . . 
 
 repeat B2 x2 
 
 
 Riff F ( with the effect) play 2 times 
 |---------------------------------------------------| 
 |---------------------------------------------------| 
 |---------------------------------------------------| 
 |---------------------------------------------------| 
 |-2-----------------------7-6-7-2-----------7-6-3-6-| 
 |-0-0-0-0-0-0-0-0-0-0-0-0-5-4-5-0-0-0-0-0-0-5-4-1-4-| 
 . . . . . . . . . . . . . . . . 
 
 repeat A1 
 
 repeat B1 x2 
 
 
 Riff G 
 |---------| 
 |---------| 
 |---------| 
 |---------| 
 |-7-6-3-2-| 
 |-5-4-1-0-| 
 
 
 
 
 Riff H 
 |-----------------------------------| 
 |-----------------------------------| 
 |-----------------------------------| 
 |---------6-----7---6-------6-------| 
 |-5---7-----------------8---------8-| 
 |---0---0---0-0---0---0---0---0-0---| 
 . . . . . . . . . 
 
 
 
 Riff H1 
 |----------------------------------| 
 |----------------------------------| 
 |----------------------------------| 
 |----------------7---6---9-7-6-7-6-| 
 |-5---7---8------------------------| 
 |---0---0---0-0----0---0-----------| 
 . . . . . . 
 
 
 
 Riff H2 
 |----------------------------------| 
 |----------------------------------| 
 |----------------------------------| 
 |---------6-----7---6---10-9-7-9-7-| 
 |-5---8----------------------------| 
 |---0---0---0-0---0---0------------| 
 . . . . . . 
 
 
 
 Riff H3 
 |-----------------------| 
 |-----------------------| 
 |-----------------------| 
 |-----------------------| 
 |-5---7---8-----7-6-3-6-| 
 |---0---0---0-0-5-4-1-4-| 
 . . . . 
 
 repeat H + H1 + H2 + H3 
 
 
 Riff H4 
 |-----------------------------------| 
 |-----------------------------------| 
 |-----------------------------------| 
 |---------6-----7---6-------6-------| 
 |-5---7-----------------8---------8-| 
 |---0---0---000---0---0---0---0-0---| 
 . . ... . . . . . 
 
 
 
 Riff H5 gtr.1 end. gtr.2 end. 
 |------------------------|-----------|-----------| 
 |------------------------|-----------|-----------| 
 |------------------------|-----------|-7-5-4-5-4-| 
 |----------------7---6---|-9-7-6-7-6-|-----------| 
 |-5---7---8--------------|-----------|-----------| 
 |---0---0---000----0---0-|-----------|-----------| 
 . . ... . . 
 
 
 
 Riff H6 gtr.1 end. gtr.2 end. 
 |-----------------------|------------|-----------| 
 |-----------------------|------------|-----------| 
 |-----------------------|------------|-8-7-5-7-5-| 
 |---------6-----7---6---|-10-9-7-9-7-|-----------| 
 |-5---8-----------------|------------|-----------| 
 |---0---0---000---0---0-|------------|-----------| 
 . . ... . . 
 


Important: The song above is NOT stored on the Chordie server. The original song is hosted at chordiearchive.chordie.com. Chordie works as a search engine and provides on-the-fly formatting. Chordie does not index songs against artists'/composers' will. To remove this song please click here.

This song is displayed as text-only. Transposing and tuning is only available for chordpro-songs.
Rate #1 of 1 versions

Jango Player

Login - add to songbook

SHARE PAGE  



You need to log in to post comments