Guitar Tabs, Chords and Lyrics
Major upgrade!! After one year development the new version of Chordie is now online! Please give feedback.


Just That Good  The Calling



[Em7] [Bm7]  
 
 eb|--------------------------------| |--------14-14~---10~---|
 bb|------8--8h10~--------3--3h5~---| |--------15-15~---10~---|
 gb|---7--7--7-------7/2--2--2------| |---/14-----------------|
 db|---9--9----------9/4--4---------| |-----------------------|
 ab|---7-------------7/2------------| |-----------------------|
 Eb|--------------------------------| |-----------------------|
 

Intro Fill 2 "You said, Don't Hate Me..."
[Am] [Bm]  
 
 eb|--------14----14------| |------------5-------------7------|
 bb|-----------15----15---| |------------5-------------7------|
 gb|---/14----------------| |------------5-------------7------|
 db|----------------------| |------------7-------------9------|
 ab|----------------------| |------------7-------------9------|
 Eb|----------------------| |------------5-------------7------|
 

Verse:
Same As The Intro With A Slight Distortion
PreChorus:
"... And I'm Just That Gooooooooooooooooooooooood."
[C] [D] [Em] [D]  
 
 eb|---3--------5----------7----------5--------|
 bb|---5--------7----------8----------7--------|
 gb|---5--------7----------9----------7--------|
 db|---5--------7----------9----------7--------|
 ab|---3--------5----------7----------5--------|
 Eb|---3--------5----------7----------5--------|
 

Solo:
 
 eb|----------------------7~~----8-8-8-8-8p7~~--15p12~~---17\\15---/15-15-17-15-15~---|
 bb|---------8~~---8--10-------------------------------------------------------------|
 gb|---7--9--------------------------------------------------------------------------|
 db|---------------------------------------------------------------------------------|
 ab|---------------------------------------------------------------------------------|
 Eb|---------------------------------------------------------------------------------|
 eb|---15p12------------------------------------------------------------------------|
 bb|---------15-13-12-12^-12--------------------------------------------------------|
 gb|-------------------------14p12-14^15^14-12-12~~---------------------------------|
 db|--------------------------------------------------------------------------------|
 ab|--------------------------------------------------------------------------------|
 Eb|--------------------------------------------------------------------------------|
 

Chorus:
[G] [Bm7] [C] [Am]  
 
 eb|---3---------2---------3---------5---|
 bb|---3---------3---------5---------5---| End On
 gb|---4---------2---------5---------6---|
 db|---5---------4---------5---------7---| Em7
 ab|---5---------2---------3---------7---|
 Eb|---3---------2---------3---------5---|
 

Bridge:
[G] [G] [G]  
 
 eb|---10---10---10~~~---| |---------------|
 bb|---12---12---12~~----| |---8/5---8/5---|
 gb|---12---12---12~~----| |---------------|
 db|---12---12---12~~----| |---------------|
 ab|---10---10---10~~~---| |---------------|
 Eb|---10---10---10~~~---| |---------------|


Important: The song above is NOT stored on the Chordie server. The original song is hosted at chordiearchive.chordie.com. Chordie works as a search engine and provides on-the-fly formatting. Chordie does not index songs against artists'/composers' will. To remove this song please click here.

Text color:
Chord color:
Chord grids: 
Font size:    
Page size: 

Am Bm Bm7 C D Em Em7 G
Rate #4 of 5 versions

Login - add to songbook

SHARE PAGE  



You need to log in to post comments