Guitar Tabs, Chords and Lyrics
Server problems seems to be fixed. Chordie has been experiencing problems with songs disappearing. These issues now seems to be fixed, but still verifying the fix. If you find anything strange, please email admin@chordie.com.


In Praise of Bacchus   Type O Negative

 
 
 Type-O tuning from low to high (B,E,A,D,F#,B) 
 
 [Main-Riff] 
 |---------0----0----0-0-----------0--0-----0-------0-0--| 
 |---------0----0----0-0-----------0--0-----0-------0-0--| 
 |---------x----x----x-x-----------x--x-----x-------x-x--| 
 |-7/9--9--9--9-9--9-9-9---9-5--5--5--5-5/7-7-7/12-\7-7--| 
 |-7/9--9--9--9-9--9-9-9---9-5--5--5--5-5/7-7-7/12-\7-7--| 
 |-5/7-----7--7-7--7-7-7---7-3--3--3--3-3/5-5-5/10-\5-5--| 
 
 
 |---------0----0----0-------------0---------------------| 
 |---------0----0----0-------------0---------------------| 
 |---------x----x----x-------------x---------------------| 
 |-7/9--9--9--9-9--9-9-9-7-7-5--5--5--5---7-7-7-------7--| 
 |-7/9--9--9--9-9--9-9-9-7-7-5--5--5--5---7-7-7-------7--| 
 |-5/7-----7--7-7--7-7-6-5-4-3--3--3--3---5-5-4-------5--| 
 
 [Verse] | 1.| 
 |-0-----------------------|-----------------------| 
 |-0-----------------------|-----------------------| 
 |-9-----------------------|-----------------------| 
 |-9--8--9--8--9--8--9--8\-|-5----------7----------| 
 |-7--7--7--7--7--7--7--7\-|-5----5--5--7----7--7--| 
 |-0-----------------------|-3----3--3--5----4--4--| 
 "The street lamps..." . . . . 
 
 2.| 3.| 
 |------------------------------|--------------------| 
 |------------------------------|--------------------| 
 |------------------------------|--------------------| 
 |-5----------------------------|-5-------------8--7-| 
 |-5--6--7--8--9-10-11-12-13-14-|-5----5--5--5--8--7-| 
 |-3--4--5--6--7--8--9-10-11-12-|-3----3--3--3--6--5-| 
 . . . 
 
 |-0----0----0----0--| |-------17bbbb15bbbb17bbbb-| 
 |-0----0----0----0--| |-17bbbb-------------------| 
 |-4----4----4----4--| |--------------------------| 
 |-4----4----4----4--| |--------------------------| 
 |-2----0----0----0--| |--------------------------| 
 |-0----0----3----2--| |--------------------------| 
 "Cobblestone Grave" 
 
 
 |-----------get the feel of the chord strikes... -----------------| 
 |-----------------------------------------------------------------| 
 |-11------------11------------11-------------11-------------------| 
 |-11------------11------------11-------------11-------------------| 
 |--x-------------x-------------9--------------7-------------------| 
 |-11------------10-------------9--------------0-------------------| 
 "She said burn...." 
 [Interlude by keyb.] 
 |---------------------| 
 |-14~~----12h14p12~~--| 
 |-11~~-----------9~~--| 
 |-11------------11----| 
 |---------------------| 
 |---------------------| 
 
 [Bridge] 
 |------------------------------------------------------------------| 
 |-12-11---12-11---12-14---12-14---12-11---12-11---12-14---12-14----| 
 |-------11------11------11------11------11------11------11------11-| 
 |-9---------------11---------------9--------------11---------------| 
 |-9---------------12---------------9---------------7---------------| 
 |-7---------------10---------------9---------------0---------------| 


Important: The song above is NOT stored on the Chordie server. The original song is hosted at chordiearchive.chordie.com. Chordie works as a search engine and provides on-the-fly formatting. Chordie does not index songs against artists'/composers' will. To remove this song please click here.

This song is displayed as text-only. Transposing and tuning is only available for chordpro-songs.
Rate #1 of 2 versions

Login - add to songbook

SHARE PAGE  




You need to log in to post comments