Guitar Tabs, Chords and Lyrics
Update 25:10. 13:00. Site is back up running again. Songbooks are recovered. Woring on getting search back up..


Tell Me That It Isn't True  Bob Dylan

 
 : . . . . . . .
 ||-(2)------2-2---2-|-3---2---3---2---||
 ||*(3)----------3---|----------------*||
 ||-(2)--------------|-----------------||
 ||--0---------------|-----------------||
 ||*-----------------|----------------*||
 ||------------------|-----------------||

[D]I have heard [A]rumors [Em]all over [D]town,
[D] They say that you're [A]planning[Em] to put me [D]down.
[G] All I would[F#m] like you to [A]do,
[G/B] Is tell me that it [Em]isn't [D]true.
They say that you've been seen with some other man,
That he's tall, dark and handsome, and you're holding his hand.
Darlin', I'm a-countin' on you,
Tell me that it isn't true.
[G]To know that some [F#m]other man is [Em]holdin' you [D]tight,
[F#]It hurts me all [Bm]over, it [Em]doesn't seem [F#m]right.[Em]
All of those awful things that I have heard,
I don't want to believe them, all I want is your word.
So darlin', you better come through,
Tell me that it isn't true.
(instrumental break)
All of these awful things that I have heard,
I don't want to believe them, all I want is your word.
So darlin', I'm countin' on you,
Tell me that it isn't true.
[F#] [Bm] [Em] [F#m]  
(three suggestions for the ending:)
 
 : . . . : . . . : . . . : . . .
 |-----------------|------------------|-----------------|-------------------||
 |-----------------|------------------|-----------------|-------------------||
 |-----------------|-0----------------|-----------------|2h4-2--------------||
 |/4-2-0-2---0-----|---4-2-/4---------|-4-2-0-2---0-0---|------2-h4---------||
 |-------------2---|------------------|-----------------|-------------------||
 |-----------------|------------------|-----------------|-------------------||

or:
 
 : . . . : . . . : . . . : . . .
 |-2-0---0---------|-3-2-0-2----------|-----------------|-------------------||
 |-3---3-0---3-0---|-------3----------|-------0---------|-------------------||
 |-0-----0---------|-4-2-0-2----------|-2-----0---------|-2h4-2-------------||
 |-----------------|-------0----------|-4-2-0-2---0-----|-------2-h4--------||
 |-----------------|------------------|-------------2---|-------------------||
 |-----------------|------------------|-----------------|-------------------||

This is actually played on a guitar capoed on the 1st fret, something like:
 
 : . . . : . . . : . . . : . . .
 |-----------------|------------------|-----------------|-(0)---------------||
 |-----------------|-0-0-0--0---------|-----------------|--------(0)--------||
 |-----------------|------------------|-----------------|4h6-4--------------||
 |/6-4-2-4---2-----|-7-6-4-h6---------|-----------------|------4-h6---------||
 |-------------4---|------------------|-----------------|-------------------||
 |-----------------|------------------|-4-2-0-2---0-0---|-------------------||

Tabbed by Eyolf √?strem - dylanchords.info

Important: The song above is NOT stored on the Chordie server. The original song is hosted at dylanchords.info. Chordie works as a search engine and provides on-the-fly formatting. Chordie does not index songs against artists'/composers' will. To remove this song please click here.

Text color:
Chord color:
Chord grids: 
Font size:    
Page size: 

A Bm D Em F# F#m G G/B
Rate #1 of 1 versions

Login - add to songbook

SHARE PAGE  



You need to log in to post comments