Guitar Tabs, Chords and Lyrics
Server problems seems to be fixed. Chordie has been experiencing problems with songs disappearing. These issues now seems to be fixed, but still verifying the fix. If you find anything strange, please email admin@chordie.com.


Wedding Song  Bob Dylan

 
 : . . . : . . . : . . . : . . .
 |-----0-0-0-0-----|-----0-0-0-0-----|-----2-----2-2-2-|---2-2-2---0-0-0-|
 |-----1-1-1-1-----|-----1-1-1-1-----|-----3-----3-3-3-|---3-3-3---3-3-3-|
 |-----2-2-2-2-----|-----0-0-0-0-----|-----2-----2-2-2-|---2-2-2---0-0-0-|
 |-----2-2-2-2-----|-----2-2-2-2-0h2-|-0------(0)------|-0-------0-------|
 |-0-----------0h2-|-3---------------|--------(0)------|-0-------0-------|
 |-----------------|-----------------|--------(2)------|-2-------2-------|
 : . . . : . . . : . . . : . . .
 |---0-0-0-0-0-----|---0-0-0-----0-0-|---3-3-3-3-3-3-3-|-----3---3-3-3-3-|
 |---1-1-1-1-1-----|---1-1-1-----1-1-|---0-0-0-0-0-0-0-|-----0---0-0-0-0-|
 |---2-2-2-2-2-----|---0-0-0-----0-0-|---0-0-0-0-0-0-0-|-----0---0-0-0-0-|
 |---2-2-2-2-2-----|---2-2-2-0h2-2-2-|---0-0-0-0-0-0-0-|-----0---0-0-0-0-|
 |-0--------- -0h2-|-3---------------|(2)--------------|-2---------------|
 |-----------------|-----------------|-3---------------|-3---------------|
 : . . . : . . . : . . . : . . .
 |-----0-0-----0---|-----0-----0-0-0-|-----0-0-0-0-0-0-|-----0-0-----0-0-|
 |-----1-1-----1---|-----1-----1-1-1-|-----1-1-1-1-1-1-|-----1-1-----1-1-|
 |-----2-2-----2---|-----2-----2-2-2-|-----2-2-2-2-2-2-|-----2-2-----2-2-|
 |-----2-2-----2---|-----2-----2-2-2-|-----2-2-2-2-2-2-|-----2-2-0h2-2-2-|
 |-0-------0-------|-0-------0-------|-0-------0-------|-0---------------|
 |-----------------|-----------------|-----------------|-----------------|

I [Am]love you more than [C]ever, more than [D]time and more than love
I [Am]love you more than [C]money and more [G]than the stars above
I [F]love you more than [Am]madness, [C/G]more than [Dm]dreams upon the sea
I [Am]love you more than [C]life itself, you [G]mean that much to me.
Ever since you walked right in the circle's been complete
I've said goodbye to haunted rooms and faces in the street
In the [F]courtyard of the [C]jester which is [G]hidden [Dm]from the sun
I love you more than ever and I haven't yet begun. C/G G
You breathed on me and made my life a richer one to live
When I was deep in powerty you taught me how to give
[F]Dried the tears up [C]from my dreams and [Dm]pulled me from the hole
I love you more than ever and it binds me to this all.
(Harmonica:)
F . Am . Dm . . .
F . C . Am . . . . .
You gave me babies, one, two, three, what is more, you saved my life
Eye for eye and tooth for tooth, your love cuts like a knife
My [F]thoughts of you don't [Am]ever rest, [/A-/B]they'd [C]kill me if I [G]lie
But I'd sacrifice the world for you and watch my senses die.
The tune that is yours and mine to play upon this earth
We'll play it out the best we know, whatever it is worth
What's [F]lost is lost, we [Am]can't regain what [C]went down [G]in the [Dm]flood
But happiness to me is you and I love you more than blood.
It's never been my duty to remake the world at large
Nor is it my intention to sound a battle charge
'Cause I [F]love you more than [Am]all of that [/B]with a [C]love that doesn't [Dm]bend
And if there is eternity I'd love you there again.
F . Am . |Dm . . . |
C . . . |Am . . /B-/C|
F . Am . |C Dm . . |
F . Am . |C . . . . /C-/B |
Oh, can't you see that you were born to [Dm]stand by my side
And I was born to be with you, you were born to be my bride
You're the [F]other half of [C]what I am, [Dm]you're the missing piece
And I love you more than ever with that love that doesn't cease.
You turn the tide on me each day and [Dm]teach my eyes to [D]see
Just being next to you is a natural thing for me
And [F]I could never [C]let you go, no [Dm]matter what goes on
'Cause I love you more than ever now that the past is gone.
F . C Am |Dm . . . |
F . C . |Am . . . |
Dm . . . |F . C . . . |
Am . F . |C . Am . |Dm ~
Tabbed by Eyolf Østrem - dylanchords.info

Important: The song above is NOT stored on the Chordie server. The original song is hosted at dylanchords.info. Chordie works as a search engine and provides on-the-fly formatting. Chordie does not index songs against artists'/composers' will. To remove this song please click here.

Text color:
Chord color:
Chord grids: 
Font size:    
Page size: 

Am C C/G D Dm F G
Rate #1 of 4 versions

Jango Player

Login - add to songbook

SHARE PAGE  



You need to log in to post comments