Guitar Tabs, Chords and Lyrics
Major upgrade!! After one year development the new version of Chordie is now online! Please give feedback.


Arthur McBride  Bob Dylan

This may come as a surprise to some of you, but this song is in
standard tuning, capo 2nd fret,chords in the G family, and not in open
G tuning. The hammer-ons simply wouldn't be possible in open G, and
the high, continually sounding tone suggests the common G chord 3rd
fret pinky on the 1st string.
See http://www.paulbrady.com/tablature/Am.asp for Paul Brady's
version in open G, which is probably where Dylan learned it
(thanks to Trev for notifying me and for finding the link).
C/E = xx2013
The verses are played more or less as the intro. The introductory
ascent is played like this in most of the verses:
 
 : . . : . .
 |-3-----------------------3---
 |-0-----------------------0---
 |-0-----------------------0---
 |-0-----------0---2---4---0--- etc (or 355433)
 |-2-----------2---3---5---2---
 |-3-----------3-----------3---

Intro:
 
 : . . : . . : . . : . .
 |-3-----3-3---3----------|---------3---3-----------|
 |-3-----3-3---3---5---7--|-8-------0---0-----------|
 |-4-----4-4---4---5---7--|-7-------0---0-----------|
 |-5----------------------|-9-------0---0-----------|
 |------------------------|---------2---2-----------|
 |------------------------|---------3---3-----------|
 : . . : . . : . . : . .
 |-3-------3---3----------|-------------3-----------|
 |-1-------1---0---keep strumming-------1-----------|
 |-0-------0---0----------|-------------0-------0---|
 |-2-------2---0----------|-------------2-------0---|
 |-3-------3---2---0h2----|-0h2-----0---x------(0)--|
 |-------------3----------|-------------3-----------|
 : . . : . . : . . : . .
 |-3----------------------|-------------------------|
 |-0----------------------|-------------------------|
 |-0----------------------|-------------------------|
 |-0----------------------|-------------0-----------|
 |-2-------0---2p0--------|-0h2-----3---------------|
 |-3---------------3------|-------------------------|
 : . . : . . : . . : . .
 |------------------------|-------------3---
 |------------------------|-------------0---
 |---------0-----0---0----|-------------0--- two measures
 |-0---2------------------|-------------0--- of G strumming
 |-------------2---3---2--|-0---2---0---2---
 |------------------------|-------------3---

Oh, [G]me and my cousin, one [C/E]Arthur Mc[G]Bride,
C/E G C * * hammer-on 0-2 on
As we went a-walkin' down by the seaside, the 4th string
[G]Now mark what followed [C/G]and [G]what did[C/G] bet[G]ide
For it [C/E]bein' on [G]Christmas [D]mornin'
G ** G ** ascent on the
Now, for recreation, we went on a tramp, low strings
And we [C]met Sergeant [G]Napper and [C]Corporal Vamp
And a [G]little wee drummer intending [C/G]to [G]camp,
For the day bein' pleasant and [D]char[G]min'.
"Good morning, good morning," the Sergeant he cried.
"And the same to you, gentlemen," we did reply,
Intending no harm but meant to pass by,
For it bein' on Christmas mornin'
"But," says he, "My fine fellows, if you will enlist,
Ten guineas in gold I'll stick to your fist,
And a crown in the bargain for to kick up the dust,
And drink the king's health in the morning.
"For a soldier, he leads a very fine life,
And he always is blessed with a charming young wife,
And he pays all his debts without sorrow or strife,
And he always lives pleasant and charmin',
And a soldier, he always is decent and clean,
In the finest of clothing he's constantly seen.
While other poor fellows go dirty and mean,
And sup on thin gruel in the morning."
Instrumental
"But," says Arthur, "I wouldn't be proud of your clothes,
For you've only the lend of them, as I suppose,
And you dare not change them one night, for you know
If you do, you'll be flogged in the morning,
And although that we're single and free,
We take great delight in our own company,
We have no desire strange places to see,
Although that your offers are charming.
"And we have no desire to take your advance,
All hazards and dangers we barter on chance,
For you'd have no scruples for to send us to France,
Where [G]we would get shot without [D]warn[G]ing."
"Oh no," says the Sergeant. "I'll have no such chat,
And neither will I take it from snappy young brats,
For if you insult me with one other word,
I'll cut off your heads in the morning."
And Arthur and I, we soon drew our hogs,
And we scarce gave them time to draw their own blades
When a trusty shillelagh came over their head
And bid them take that as fair warning.
And their old rusty rapiers that hung by their sides,
We flung them as far as we could in the tide,
"Now take them up, devils!" cried Arthur McBride,
"And temper their edge in the mornin'!"
And the little wee drummer, we flattened his bow,
And we made a football of his rowdy-dow-dow,
Threw it in the tide for to rock and to roll,
And [G]bade it a tedious re[D]turning
And we havin' no money, paid them off in cracks.
We paid no respect to their two bloody backs,
And we lathered them there like a pair of wet sacks,
And left them for dead in the morning.
And so, to conclude and to finish disputes,
We obligingly asked if they wanted recruits,
For we were the lads who would give them hard clouts
And bid them look sharp in the mornin'.
Instrumental
Oh, me and my cousin, one Arthur McBride,
As we went a-walkin' down by the seaside,
Mark now what followed and what did betide,
For it bein' on Christmas mornin'
 
 : . . : . . : . . : . .
 |-----3---3---|-3---3---3---|-0---0---0---|-0---0---0---|
 |-----0---0---|-1---1---1---|-1/3-3---3---|-1---1---1---|
 |-----0---0---|-0---0---0---|-0---0---0---|-0---0---0---|
 |-----0---0---|-2---2---2---|-2/4-4---4---|-0h2-2---2---|
 |-2-----------|-------------|-------------|-------------|
 |-3-----------|-------------|-------------|-------------|
 -nin'________________________________________________
 : . . : . . : . . : . .
 |-3---3---3---|-3---3-3-3-3-|-3-------3---|-3-----------
 |-0---0---0---|-1---1-1-1-1-|-0-------0---|-0-----------
 |-0---0---0---|-0---0-0-0-0-|-0-------0---|-0-----------
 |-0-------0---|-0h2-----2---|-0-------0---|-0-----------
 |-------------|-------------|-----2-------|-2-----------
 |-------------|-------------|-----3-------|-3-----------

Tabbed by Eyolf Østrem - dylanchords.info

Important: The song above is NOT stored on the Chordie server. The original song is hosted at dylanchords.info. Chordie works as a search engine and provides on-the-fly formatting. Chordie does not index songs against artists'/composers' will. To remove this song please click here.

Text color:
Chord color:
Chord grids: 
Font size:    
Page size: 

C C/E C/G D G
Rate #1 of 10 versions

Jango Player

Login - add to songbook

SHARE PAGE  




You need to log in to post comments