Guitar Tabs, Chords and Lyrics
Major upgrade!! After one year development the new version of Chordie is now online! Please give feedback.


Blackjack Davey  Bob Dylan

Intro:
 
 : . . . : . . . : . . . : . . .
 |---------------------------------|-----------------1---------------|
 |----(0)---(0)-etc.---------------|-----------------0h3-------------|
 |-----0-----0---------------------|-----------------0h2-------------|
 |-----------------0---------------|-----------------0---------------|
 |---------1---3-------1-----------|---------1---3-------------------|
 |-3-----------------------3-------|-0h3-3---------------------------|
 : . . . : . . . : . . . : .
 |---------------------------------|-----------------1-------|
 |---------------------------------|-----------------1-------|
 |-----------0---0---0---0---------|-------0---0-----2-------|
 |-----------------0---------------|-----------------3-------|
 |---------1---3-------1-----------|---------1---0-----------|
 |-0h3-3-3-----------------3-------|-0h3-3-------------------|
 : . . . : . . . : . . . : . . . : . . .
 |-0-0-0-3--------------------|-----------------3----------------------|
 |-1-1-1-1---1-1--------------|-----------------3----------------------|
 |-0-0-0-0---0-0---etc.-------|-----------------3----------------------|
 |-2-2-2-2---2-2--------------|-----3p0---------5----------------------|
 |-3---------3-3--------------|/5-------3-------5----------------------|
 |----------------------------|-------------6---3----------------------|

[Gm]Black Jack Davey come a-riden' on back,
A-whistlin' loud and [Dm]merry.
[Gm]Made the woods around him ring,
And he charmed the heart of a [F]la[C]dy,
[Gm]Charmed the heart of a lady.
"How old are you, my pretty little miss,
How old are you, my honey"
She answered to him with a lovin' smile
"I'll be sixteen come Sunday,
Be sixteen come Sunday."
"Come and go with me, my pretty little miss,
Come and go with me, my honey,
Take you where the grass grows green
You never will want for money
You never will want for money
"Pull off, pull off them high-heeled shoes
All made of Spanish leather.
Get behind me on my horse
And we'll ride off together,
We'll both go off together."
Well, she pulled off them high-heeled shoes
Made of Spanish leather.
Got behind him on his horse
And they rode off together.
They rode off together.
At night the boss came home
Inquiring about this lady.
The servant spoke before she thought,
"She's been with Black Jack Dave,
Rode off with Black Jack Davey."
"Well, saddle for me my coal black stud,
He's speedier than the gray.
I rode all day and I'll ride all night,
And I'll overtake my lady.
I'll bring back my lady."
Well, he rode all night till the broad daylight,
Till he came to a river ragin',
And there he spied his darlin' bride
In the arms of Black Jack Davey.
Wrapped up with Black Jack Davey.
"Pull off, pull off them long blue gloves
All made of the finest leather.
Give to me your lily-white hand
And we'll both go home together.
We'll both go home together."
Well, she pulled off them long blue gloves
All made of the finest leather.
Gave to him her lily-white hand
And said good-bye forever.
Bid farewell forever.
"Would you forsake your house and home,
Would you forsake your baby?
Would you forsake your husband, too,
To go with Black Jack Davey.
Ride off with Black Jack Davey?"
"Well, I'll forsake my house and home,
And I'll forsake my baby.
I'll forsake my husband, too,
For the love of Black Jack Davey.
Ride off with Black Jack Davey."
"Last night I slept in a feather bed
Between my husband and baby.
Tonight I lay on the river banks
In the arms of Black Jack Davey,
Love my Black Jack Davey."
Live version, 1993
Add some melody in the bass if you like:
 
 |---strum Dm------
 |-----------------
 |-------0-2------- etc.
 |-0-0-3-----3-0---
 |-----------------
 |-----------------

[Dm]Black Jack Davey come a-riden' on back,
A-whistlin' loud and [Am]merry.
[Dm]Made the woods around him ring,
And he charmed the heart of a [C]la[G]dy,
Charmed the heart of a l[Dm]ady.
Tabbed by Eyolf Østrem - dylanchords.info

Important: The song above is NOT stored on the Chordie server. The original song is hosted at dylanchords.info. Chordie works as a search engine and provides on-the-fly formatting. Chordie does not index songs against artists'/composers' will. To remove this song please click here.

Text color:
Chord color:
Chord grids: 
Font size:    
Page size: 

Am C Dm F G Gm
Rate #1 of 2 versions

Login - add to songbook

SHARE PAGE  



You need to log in to post comments